Song name
# A B C D E F G H I J K L M N O P Q R S T U V W X Y Z

Major Accident - Clockwork Toys tab

Band: Major Accident
Song: Clockwork Toys


tabbed by jam9383@yahoo.com


Verse

e---------------------------------------------------------------------|
B---------------------------------------------------------------------|
G--8-8-8-8-8-8-8-8-----------6-6-6-6----------------------------------|
D--8-8-8-8-8-8-8-8--6-6-6-6--6-6-6-6----------------------------------|
A--6-6-6-6-6-6-6-6--6-6-6-6--4-4-4-4----------------------------------|
E-------------------4-4-4-4-------------------------------------------|

Chorus

e---------------------------------------------------------------------|
B---------------------------------------------------------------------|
G---6-6-6-6-----------8-8-8-8-8-8-------------------------------------|
D---6-6-6-6--6-6-6-6--8-8-8-8-8-8-------------------------------------|
A---4-4-4-4--6-6-6-6--6-6-6-6-6-6-------------------------------------|
E------------4-4-4-4--------------------------------------------------|

Bridge

e---------------------------------------------------------------------|
B---------------------------------------------------------------------|
G----8-8---------8-8-8-----8-8---------8-8-8--------------------------|
D----8-8---6-6---8-8-8-----8-8---6-6---8-8-8--------------------------|
A----6-6---6-6---6-6-6-----6-6---6-6---6-6-6--------------------------|
E----------4-4-------------------4-4----------------------------------|

any comments/corrections needed contact me, please rate
Tap to rate this tab
 
# A B C D E F G H I J K L M N O P Q R S T U V W X Y Z