Song name
# A B C D E F G H I J K L M N O P Q R S T U V W X Y Z

Major Accident - Warboots tab

Band: Major Accident
Song: Warboots


tabbed by jam9383@yahoo.com


Intro/Verse

e---------------------------------------------------------------------|
B---------------------------------------------------------------------|
G---------------------------------------------------------------------|
D--8-8-8-8-8-8-8-8--6-6-6--8-8-8--------------------------------------|
A--8-8-8-8-8-8-8-8--6-6-6--8-8-8--------------------------------------|
E--6-6-6-6-6-6-6-6--4-4-4--6-6-6--------------------------------------|

Chorus

e---------------------------------------------------------------------|
B---------------------------------------------------------------------|
G--6-6-6-6---------6-6-6-6--------------------------------------------|
D--6-6-6-6--6-6-6--6-6-6-6--6-6-6-6-----------------------------------|
A--4-4-4-4--6-6-6--4-4-4-4--6-6-6-6-----------------------------------|
E-----------4-4-4-----------4-4-4-4-----------------------------------|

e---------------------------------------------------------------------|
B---------------------------------------------------------------------|
G---------------------------------------------------------------------|
D---6-6--8-8-8-8-8--6-6--8-8-8-8-8------------------------------------|
A---6-6--8-8-8-8-8--6-6--8-8-8-8-8------------------------------------|
E---4-4--6-6-6-6-6--4-4--6-6-6-6-6------------------------------------|

Bridge

e---------------------------------------------------------------------|
B---------------------------------------------------------------------|
G---5-5-5-5-6-6-6-6---3-3-3-3-3-3-3-3---------------------------------|
D---5-5-5-5-6-6-6-6---3-3-3-3-3-3-3-3---------------------------------|
A---3-3-3-3-4-4-4-4---1-1-1-1-1-1-1-1---------------------------------|
E---------------------------------------------------------------------|

2nd Guitar
e---------------------------------------------------------------------|
B---9------9------9--------9------------------------------------------|
G------9------9-------9-----------------------------------------------|
D---------------------------------------------------------------------|
A---------------------------------------------------------------------|
E---------------------------------------------------------------------|

End of Bridge

e---------------------------------------------------------------------|
B---------------------------------------------------------------------|
G--3-3-3----------6-6-6-6-6-6-----------------------------------------|
D--3-3-3--4-4-4---6-6-6-6-6-6-----------------------------------------|
A--1-1-1--4-4-4---4-4-4-4-4-4-----------------------------------------|
E---------2-2-2-------------------------------------------------------|

any comments/corrections needed contact me, please rate
Tap to rate this tab
# A B C D E F G H I J K L M N O P Q R S T U V W X Y Z