Song name
# A B C D E F G H I J K L M N O P Q R S T U V W X Y Z

Major League - I Dont Like You Whatsoever tab

I wanted to update the tag that was on here because the other one is really wrong 
so I tried to do the best I could so here yeah go

Tuning: Drop Db (Db Ab Db Gb Bb eb)

Guitar 1:

|-----------------------------------------------------|
|-----------------------------------------------------|
|-7xx7xxxx7xx7xxxx7xx6666-7xx7xxxx7xx7xxxx7xx11111111-|
|-xxxxxxxxxxxxxxxxxxxxxxx-xxxxxxxxxxxxxxxxxxxx-x-x-x--|
|-5xx5xxxx5xx5xxxx5xx4444-5xx5xxxx5xx5xxxx5xx9-9-9-9--|
|-----------------------------------------------------|
                                        x2
|----------------------------------------------------|
|----------------------------------------------------|
|-7xx7xxxx7xx7xxxx7xx6666-7xx7xxxx7xx7-1212121212119-|
|-xxxxxxxxxxxxxxxxxxxxxxx-xxxxxxxxxxxx-x-x-x-x-x-x-x-|
|-5xx5xxxx5xx5xxxx5xx4444-5xx5xxxx5xx5-10101010109-7-|
|----------------------------------------------------|

Verse is bass but the chords are DAEA

Verse 2:

|-----------------------------------------------------|
|-----------------------------------------------------|
|-7xx7xxxx7xx7xxxx7xx6666-7xx7xxxx7xx7xxxx7xx11111111-|
|-xxxxxxxxxxxxxxxxxxxxxxx-xxxxxxxxxxxxxxxxxxxx-x-x-x--|
|-5xx5xxxx5xx5xxxx5xx4444-5xx5xxxx5xx5xxxx5xx9-9-9-9--|
|-----------------------------------------------------|
                                        x2 
|----------------------------------------------------|
|----------------------------------------------------|
|-7xx7xxxx7xx7xxxx7xx6666-7xx7xxxx7xx7-1212121212119-|
|-xxxxxxxxxxxxxxxxxxxxxxx-xxxxxxxxxxxx-x-x-x-x-x-x-x-|
|-5xx5xxxx5xx5xxxx5xx4444-5xx5xxxx5xx5-10101010109-7-|
|----------------------------------------------------|

|---|
|---|
|-7-|
|-x-|
|-5-|
|---|

Chorus:  x2

|---------------------------------------------|
|---------------------------------------------|
|-777777777777-11111111-999999999999-11111111-|
|-xxxxxxxxxxxx-x-x-x-x--xxxxxxxxxxxx-x-x-x-x--|
|-555555555555-9-9-9-9--777777777777-9-9-9-9--|
|---------------------------------------------|

|-------------------------------------------------------------|
|-------------------------------------------------------------|
|-77-7-7-77-7-79999-------------------------------------------|
|-xx-x-x-xx-x-xxxxx-----------------------------------4444555-|
|-55-5-5-55-5-57777-00000-0-000-0-0-------00000-0-000-4444555-|
|-------------------00000-0-000-0-0-2/4/2-00000-0-000-4444555-|
                    ****    **  * *       ****    **  

Bridge:

|-----------------------------------------------------------|
|-----------------------------------------------------------|
|-----------------------------------------------------------|
|-------------------------------------------------------7---|
|----7---7h9---7---5-----7---7h9----7---7h9---7---5-------9-|
|-00---0-----0---0-----0---0-----00---0-----0---0-----0-----|
  **   *     *   *     *   *     **   *     *   *     *
                                                                  x2
|----------------------------------------------------------------|
|----------------------------------------------------------------|
|----------------------------------------------------------------|
|----------------------------------------------------------------|
|----7---7h9---7---5-----7---7h9----7---7h9---10--/9/7/5/7/9/7/5-|
|-00---0-----0---0-----0---0-----00---0-----0--------------------|
  **   *     *   *     *   *     **   *     *   

Outro:

|-----------------------------------------------------|
|-----------------------------------------------------|
|-7xx7xxxx7xx7xxxx7xx6666-7xx7xxxx7xx7xxxx7xx11111111-|
|-xxxxxxxxxxxxxxxxxxxxxxx-xxxxxxxxxxxxxxxxxxxx-x-x-x--|
|-5xx5xxxx5xx5xxxx5xx4444-5xx5xxxx5xx5xxxx5xx9-9-9-9--|
|-----------------------------------------------------|
                                        
|----------------------------------------------------|
|----------------------------------------------------|
|-7xx7xxxx7xx7xxxx7xx6666-7xx7xxxx7xx7-1212121212119-|
|-xxxxxxxxxxxxxxxxxxxxxxx-xxxxxxxxxxxx-x-x-x-x-x-x-x-|
|-5xx5xxxx5xx5xxxx5xx4444-5xx5xxxx5xx5-10101010109-7-|
|----------------------------------------------------|

|-----------------------------------------------------|
|-----------------------------------------------------|
|-7xx7xxxx7xx7xxxx7xx6666-7xx7xxxx7xx7xxxx7xx11111111-|
|-xxxxxxxxxxxxxxxxxxxxxxx-xxxxxxxxxxxxxxxxxxxx-x-x-x--|
|-5xx5xxxx5xx5xxxx5xx4444-5xx5xxxx5xx5xxxx5xx9-9-9-9--|
|-----------------------------------------------------|
                                        
|--------------------------------------|
|--------------------------------------|
|-7xx7xxxx7xx7xxxx7xx6666-7xx7xxxx7xx7-|
|-xxxxxxxxxxxxxxxxxxxxxxx-xxxxxxxxxxxx-|
|-5xx5xxxx5xx5xxxx5xx4444-5xx5xxxx5xx5-|
|--------------------------------------|

Guitar 2:

|-------------------|--------------------|
|-------------------|--------------------|
|-------------------|--------------------|
|-------------------|--------------------|
|-0-0--0-0--000-000-|-0-0--00000-000-000-|
|-0-0--0-0--000-000-|-0-0--00000-000-000-|
  * *  * *  *** ***   * *  ***** *** ***

|-----------------------|------------------|
|-----------------------|------------------|
|---------x3------------|------------------|
|-----------------------|------------------|
|-0-0--0-0--0000-000000-|-0-0--0-0-000-0-0-|
|-0-0--0-0--0000-000000-|-0-0--0-0-000-0-0-|
  * *  * *  **** ******   * *  * * *** * *
Verse 1

Verse 2:

|----|----------|----|
|----|----x4----|----|
|----|----------|----|
|-0*-|-0-0--0-0-|-0*-|
|-0*-|-0-0--0-0-|-0*-|
|-0*-|-0-0--0-0-|-0*-|

Chorus:  x2

|-------------------------------------|
|-------------------------------------|
|-------------------------------------|
|-000000000000-4444-222222222222-4444-|
|-000000000000-4444-222222222222-4444-|
|-000000000000-4444-222222222222-4444-|

|---------------------------------------------------------------|
|---------------------------------------------------------------|
|---------------------------------------------------------------|
|-77-7-7-77-7-7777----------------------------------------------|
|-77-7-7-77-7-7777-----------------------------------4444555-0*-|
|-55-5-5-55-5-5555-00000-0-000-0-0-------00000-0-000-4444555-0*-|
|------------------00000-0-000-0-0-2/4/2-00000-0-000-4444555-0*-|
                   ****    **  * *       ****    **

Bridge:

|-------------------------------------------------------------------------------|
|-------------------------------------------------------------------------------|
|-------------------------------------------------------------------------------|
|------------------------------------------------------------------------5555-0-|
|-0-0--0-0--000-000--0-0--0-0-----------5-5--5-5--555-555--2-2--2-2--222-5555-0-|
|-0-0--0-0--000-000--0-0--0-0--2p0h2/4--5-5--5-5--555-555--2-2--2-2--222-5555-0-|
  * *  * *  *** ***  * *  * *           * *  * *  *** ***  * *  * *  *** 

|--------------|-----------------------|------------------|----------|
|--------------|-----------------------|------------------|----------|
|--------------|---------x3------------|------------------|----------|
|-----------0*-|-----------------------|------------------|----------|
|-0-0--0-0--0*-|-0-0--0-0--0000-000000-|-0-0--0-0-00-0000-|-0-0--0-0-|
|-0-0--0-0--0*-|-0-0--0-0--0000-000000-|-0-0--0-0-00-0000-|-0-0--0-0-|
  * *  * *       * *  * *  **** ******   * *  * * ** ****   * *  * *
Tap to rate this tab
# A B C D E F G H I J K L M N O P Q R S T U V W X Y Z