Song name
# A B C D E F G H I J K L M N O P Q R S T U V W X Y Z

Major League - Homewrecker tab

Major League - Hard Feelings

Homewrecker

Drop C# Tuning

Intro: Guitar 1 & 2 (2x)
eb|-----------------------------------------|
Bb|-----------------------------------------|
Gb|-----------5-5-5-5-----------3-3-3-3-----|
Db|--3-3-3-3--5-5-5-5--5-5-5-5--3-3-3-3-----|
Ab|--3-3-3-3--3-3-3-3--5-5-5-5--1-1-1-1-----|
Db|--3-3-3-3-----------5-5-5-5--------------|

Verse 1: Guitar 1 & 2 (2x)
eb|-----------------------------------------|
Bb|-----------------------------------------|
Gb|-----------5-5-5-5--3-3-3-3-3-3-3-3------|
Db|--3-3-3-3--5-5-5-5--3-3-3-3-3-3-3-3------|
Ab|--3-3-3-3--3-3-3-3--1-1-1-1-1-1-1-1------|
Db|--3-3-3-3--------------------------------|

Pre-Chorus 1: Guitar 1 (2x)
eb|-----------------------------------------|
Bb|-----------------------------------------|
Gb|-----------3-3-3-3-----------5-5-5-5-----|
Db|--5-5-5-5--3-3-3-3--3-3-3-3--5-5-5-5-----|
Ab|--5-5-5-5--1-1-1-1--3-3-3-3--3-3-3-3-----|
Db|--5-5-5-5-----------3-3-3-3--------------|
Pre-Chorus 1: Guitar 2 (1x)
eb|---------------------------------------------------|
Bb|---------------------------------------------------|
Gb|--10101010-9-9--5-5-5-5----10101010-12-12--9-9-9-9-|
Db|--x-x-x-x--x-x--x-x-x-x----x-x-x-x---x--x--x-x-x-x-|
Ab|--8-8-8-8--7-7--3-3-3-3----8-8-8-8--10-10--7-7-7-7-|
Db|---------------------------------------------------|

eb|--------------------|
Bb|--------------------|
Gb|--10101010-9-9--5~~-|
Db|--x-x-x-x--x-x--x---|
Ab|--8-8-8-8--7-7--3~~-|
Db|--------------------|


Chorus: Guitar 1 & 2 (2x)
eb|-----------------------------------------|
Bb|-----------------------------------------|
Gb|-----------5-5-5-5-----------3-3-3-3-----|
Db|--3-3-3-3--5-5-5-5--5-5-5-5--3-3-3-3-----|
Ab|--3-3-3-3--3-3-3-3--5-5-5-5--1-1-1-1-----|
Db|--3-3-3-3-----------5-5-5-5--------------|

Interlude: Guitar 1 (1x)
eb|------------|
Bb|------------|
Gb|------------|
Db|--3-3-3-3---|
Ab|--3-3-3-3---|
Db|--3-3-3-3---|
Interlude: Guitar 2 (1x)
eb|------------|
Bb|------------|
Gb|--10101010--|
Db|--x-x-x-x---|
Ab|--8-8-8-8---|
Db|------------|


Verse 2: Guitar 1 (4x)
eb|----------------------------------------------|
Bb|----------------------------------------------|
Gb|------------5-5-5-5----3-3-3-3-3-3-3-3--------|
Db|--3-3-3-3---5-5-5-5----3-3-3-3-3-3-3-3--------|
Ab|--3-3-3-3---3-3-3-3----1-1-1-1-1-1-1-1--------|
Db|--3-3-3-3-------------------------------------|
Verse 2: Guitar 2 (4x)
eb|-------------------------|
Bb|-------------------------|
Gb|--10101010-9-9--5-5-5-5--|
Db|--x-x-x-x--x-x--x-x-x-x--|
Ab|--8-8-8-8--7-7--3-3-3-3--|
Db|-------------------------|

Pre-Chorus 2: Guitar 1 (2x)
eb|-----------------------------------------|
Bb|-----------------------------------------|
Gb|-----------3-3-3-3-----------5-5-5-5-----|
Db|--5-5-5-5--3-3-3-3--3-3-3-3--5-5-5-5-----|
Ab|--5-5-5-5--1-1-1-1--3-3-3-3--3-3-3-3-----|
Db|--5-5-5-5-----------3-3-3-3--------------|
Pre-Chorus 2: Guitar 2 (2x)
eb|-------------------------------------------|
Bb|-----------------6655----------------------|
Gb|-------2222-5555------3333-2222-3333-2222--|
Db|--3333-------------------------------------|
Ab|-------------------------------------------|
Db|-------------------------------------------|

Chorus: Guitar 1 & 2 (2x)
eb|----------------------------------------------|
Bb|----------------------------------------------|
Gb|------------5-5-5-5---------------3-3-3-3-----|
Db|--3-3-3-3---5-5-5-5----5-5-5-5----3-3-3-3-----|
Ab|--3-3-3-3---3-3-3-3----5-5-5-5----1-1-1-1-----|
Db|--3-3-3-3--------------5-5-5-5----------------|

Bridge: Guitar 1 (2x)
eb|-----------------------------------------|
Bb|-----------------------------------------|
Gb|-----------3-3-3-3-----------3-3-3-3-----|
Db|--5-5-5-5--3-3-3-3--5-5-5-5--3-3-3-3-----|
Ab|--5-5-5-5--1-1-1-1--5-5-5-5--1-1-1-1-----|
Db|--5-5-5-5-----------5-5-5-5--------------|
Bridge: Guitar 2 (4x)
eb|------------------------|
Bb|------------------------|
Gb|--10101010-9-9--5-5-5-5-|
Db|--x-x-x-x--x-x--x-x-x-x-|
Ab|--8-8-8-8--7-7--3-3-3-3-|
Db|------------------------|

Break: Guitar 1 & 2 (2x)
eb|------------------|
Bb|------------------|
Gb|------5~~-----3~~-|
Db|--3~~-5~~-5~~-3~~-|
Ab|--3~~-3~~-5~~-1~~-|
Db|--3~~-----5~~-----|

Outro: Guitar 1 & 2 (2x)
eb|-----------------------------------------|
Bb|-----------------------------------------|
Gb|-----------5-5-5-5-----------3-3-3-3-----|
Db|--3-3-3-3--5-5-5-5--5-5-5-5--3-3-3-3-----|
Ab|--3-3-3-3--3-3-3-3--5-5-5-5--1-1-1-1-----|
Db|--3-3-3-3-----------5-5-5-5--------------|

Tap to rate this tab
 
# A B C D E F G H I J K L M N O P Q R S T U V W X Y Z