Song name
# A B C D E F G H I J K L M N O P Q R S T U V W X Y Z

Makana - Walking With You tab

Sep 17th, 2013, Portland, OR, USA

Tuning: BEdgbe

e|--2--------2-------2--------2--------2-------------------|
B|--------0-------0--------0--------0----------------------|
G|-----3-------3--------3--------3-------------------------|
D|--------1----------1-----------1--------1----------------|
E|---------------------------------------------------------|
B|--0----------0-----------0-----------0-------------------|

e|--7--------7--------7-------------------------------------|
B|--------5--------5--------5------------(0)----------------|
G|-----8--------8--------8----------------------------------|
D|--------6-----------6---------6-----6---------------------|
E|--0-----------0------------0-----0------------------------|
B|----------------------------------------------------------|

e|--9--------9--------9--------9--------9------------------|
B|--------7--------7--------7--------7---------------------|
G|-----9--------9--------9--------9------------------------|
D|--------8-----------8-----------8--------8---------------|
E|--0-----------0-----------0-----------0------------------|
B|---------------------------------------------------------|

e|--11-------11--------9-----------------------------------|
B|--------7---------7--------7-----------------------------|
G|-----9---------9--------9--------------------------------|
D|--------9------------9--------9-----9--------------------|
E|--0------------0-----------0-----0-----------------------|
B|---------------------------------------------------------|

This part is not 100% accurate:
e|--6---------------------------------------------------------------(2)----|
B|-----------4--7--------4---------------------------------4--2--0--2------|
G|--------4--------4-----------4--6--4--6--0--------1----------------------|
D|-----4--------------4--------------------------2-----2-------------------|
E|---------------------------------------------0-----------0---------------|
B|--0-----------0-----------0--------0-------------------------------------|

e|--2--------2-------2-----2-------2-----------------------|
B|--------2-------2-------------2--------2-----------------|
G|-----4-------4--------4----4--------4--------------------|
D|--------4----------4-------4-----------4-----------------|
E|--5----------5--------4----------4-----------------------|
B|---------------------------------------------------------|

                                                                         This part isn't either:
e|--2--------2--------2-----------------|--2--------4/---7--2------|
B|--------2--------2--------2-----------|--------2-----------------|
G|-----4--------4--------4--------------|-----4--------------------|
D|--------4-----------4--------4-----0--|--------4-----------------|
E|--0-----------0-----------0-----0-----|--0----------0-----0------|
B|--------------------------------------|--------------------------|

e|--2------------------------------------------------|
B|--4------------------------------------------------|
G|--3------------------------------------------------|
D|--4------------------------------------------------|
E|--x------------------------------------------------|
B|--0------------------------------------------------|
Tap to rate this tab
# A B C D E F G H I J K L M N O P Q R S T U V W X Y Z