Song name
# A B C D E F G H I J K L M N O P Q R S T U V W X Y Z

Make A Change Kill Yourself - Livets Gave tab

Intro:                            DEMO
0:00
|-----------|
|-----------|
|-----------|
|-9----11---|
|-7----9----|
|-7----9----|
0:01
|-------------------------------------------------------------------------|
|-------------------------------------------------------------------------|
|-------------------------------------------------------------------------|
|-13-13-13-13-13-13-13--11-11-11-11-11-11-11--9-9-9-9-9-9-9--8-8-8-8-8-8-8|..
|-11-11-11-11-11-11-11--9--9--9--9--9--9--9---7-7-7-7-7-7-7--6-6-6-6-6-6-6|..
|-11-11-11-11-11-11-11--9--9--9--9--9--9--9---7-7-7-7-7-7-7--6-6-6-6-6-6-6|..

|-------------------------------------------------------------------------|
|-------------------------------------------------------------------------|
|-------------------------------------------------------------------------|
|-9-9-9-9-9-9-9--11-11-11-11-11-11-11--9-9-9-9-9-9-9--8-8-8--11-11-11-----|
|-7-7-7-7-7-7-7--9--9--9--9--9--9--9---7-7-7-7-7-7-7--6-6-6--9--9--9------|
|-7-7-7-7-7-7-7--9--9--9--9--9--9--9---7-7-7-7-7-7-7--6-6-6--9--9--9------|

7x

1:26

|-------------------------------------------------------------------------|
|-------------------------------------------------------------------------|
|-------------------------------------------------------------------------|
|-------------------------------------------------------------------------|
|-11~---9~----7~----11~---12~----9~----10~----7~--9~----------------------|
|-9~----9~----9~----9~----12~----9~----10~----7~--9~----------------------|

4x

2:09
|-------------------------------------------------------------------------|
|-------------------------------------------------------------------------|
|-------------------------------------------------------------------------|
|-13-13-13-13-13-13-13--11-11-11-11-11-11-11--9-9-9-9-9-9-9--8-8-8-8-8-8-8|..
|-11-11-11-11-11-11-11--9--9--9--9--9--9--9---7-7-7-7-7-7-7--6-6-6-6-6-6-6|..
|-11-11-11-11-11-11-11--9--9--9--9--9--9--9---7-7-7-7-7-7-7--6-6-6-6-6-6-6|..

|-------------------------------------------------------------------------|
|-------------------------------------------------------------------------|
|-------------------------------------------------------------------------|
|-9-9-9-9-9-9-9--11-11-11-11-11-11-11--9-9-9-9-9-9-9--8-8-8--11-11-11-----|
|-7-7-7-7-7-7-7--9--9--9--9--9--9--9---7-7-7-7-7-7-7--6-6-6--9--9--9------|
|-7-7-7-7-7-7-7--9--9--9--9--9--9--9---7-7-7-7-7-7-7--6-6-6--9--9--9------|

3x

02:52
|-------------------------------------------------------------------------|
|-------------------------------------------------------------------------|
|-------------------------------------------------------------------------|
|-------------------------------------------------------------------------|
|-11~---9~----7~----11~---12~----9~----10~----7~--9~----------------------|
|-9~----9~----9~----9~----12~----9~----10~----7~--9~----------------------|

3x

03:34
|-------------------------------------------------------------------------|
|-------------------------------------------------------------------------|
|-------------------------------------------------------------------------|
|-------------------------------------------------------------------------|
|-10~---9~----7~----6~----10~---9~----10~---12~---7~----9-----------------|
|-8~----8~----8~----7~----0~----0~----0~----0~----0~----0-----------------|

3x


...............................................................
Tap to rate this tab
 
# A B C D E F G H I J K L M N O P Q R S T U V W X Y Z