Song name
# A B C D E F G H I J K L M N O P Q R S T U V W X Y Z

Make Do And Mend - Tl tab

-------------------------------------------------------------------------------
			     TL - Make Do and Mend
-------------------------------------------------------------------------------
Tabbed by: Kamdude
Email: triathlete_max@hotmail.com

http://makedoandmend.me/

Tuning: half a step down (but I'll provide a standard tuning tab at the bottom).

I figured this tab out from an acoustic version they've played.
It may differ slightly from the regular version but if it does it's only a little bit
(The acoustic probably has more strings muted than the recording).


e|---------------------------------------------------------------------------|
B|---------------------------------------------------------------------------|
G|---------------------------------------------------------------------------| x6
D|--------------------------------------------7-------7-------7--------------|
A|-5--------5--------5-------5-----5-5--------5-------5-------5--------------|
E|---7-7------7-7------7-7-----7-7-----7--5-5-5-5-5-5-5-5-5-5-5-5-5-5--------|

Second Guitar: (starts at the same time as singing)

e|--------14-----10------17---------------14----------10------17-------------|
B|--12--------------10-------------12------------10--------------------------|
G|---------------------------------------------------------------------------| x2
D|---------------------------------------------------------------------------|
A|---------------------------------------------------------------------------|
E|---------------------------------------------------------------------------|


Chorus: ("Do your hands shake...") These are the chords. doesn't represent strumming

e|---------------------------------------------------------------------------|
B|---------------------------------------------------------------------------|
G|---------------------------------------------------------------------------|
D|--x----7----x----7----x*---2----x*---2-------------------------------------|
A|--5----5----5----5----5----2----5----2-------------------------------------|
E|--7----5----7----5----3---(x)---3---(x)------------------------------------|

* can also be 5
(x) may also be an open string


Verse 2: "And I know we said...". This verse has some palm mutes. Notice the dots underneath?

e|---------------------------------------------------------------------------|
B|---------------------------------------------------------------------------|
G|---------------------------------------------------------------------------|
D|----------------------------------------7-7-7-7-7-7-7-7-7-7-7-7-7-7--------|
A|-5--------5--------5-------5-----5-5----5-5-5-5-5-5-5-5-5-5-5-5-5-5--------|
E|---7-7------7-7------7-7-----7-7-----7--5-5-5-5-5-5-5-5-5-5-5-5-5-5--------|

(Chorus)

Immediately after chorus: (again, no strum pattern)

e|---------------------------------------------------------------------------|
B|---------------------------------------------------------------------------|
G|-12----11----9-------------------------------------------------------------|
D|-x-----x-----x-------------------------------------------------------------|
A|-10----9-----7-------------------------------------------------------------|
E|---------------------------------------------------------------------------|

...while in the background a second guitar plays this: (during guitar one's third chord)
e|---------------------------------------------------------------------------|
B|---------------------------------------------------------------------------|
G|-7------9------------------------------------------------------------------|
D|-x------x------------------------------------------------------------------|
A|-5------7------------------------------------------------------------------|
E|---------------------------------------------------------------------------|


This is repeated almost 4 times:
e|---------------------------------------------------------------------------|
B|---------------------------------------------------------------------------|
G|---------------------------------------------------------------------------|
D|---------------------------------------------------------------------------|
A|-5--------5--------5-------5-5---------------------------------------------|
E|---7-7------7-7------7-7-------7-7-----------------------------------------|

Guitar 2 (leading up to the last chorus)
e|---------------------------------------------------------------------------|
B|---------------------------------------------------------------------------|
G|---------------------------------------------------------------------------|
D|------------x------x-------9------9----------------------------------------|
A|------------5------4-------x------x----------------------------------------|
E|------------7------7------10------10---------------------------------------|

Finish with the chorus


++++++++++++++++++++++++++++++++++++++++++++++++++++++++++++++++++++++++++++

Standard Tuning:

e|---------------------------------------------------------------------------|
B|---------------------------------------------------------------------------|
G|---------------------------------------------------------------------------| repeat
D|--------------------------------------------6-------6-------6--------------|
A|-4--------4--------4-------4-----4-4--------4-------4-------4--------------|
E|---6-6------6-6------6-6-----6-6-----6--4-4-4-4-4-4-4-4-4-4-4-4-4-4--------|


Second Guitar: (starts at the same time as singing)

e|--------------13-----------9--------16-------------------------------------|
B|--11----------------------------9------------------------------------------|
G|---------------------------------------------------------------------------|
D|---------------------------------------------------------------------------|
A|---------------------------------------------------------------------------|
E|---------------------------------------------------------------------------|


"Do your hands shake?"  (Strumming isn't implied here. Just the chords)

e|---------------------------------------------------------------------------|
B|---------------------------------------------------------------------------|
G|---------------------------------------------------------------------------|
D|--x----6----x----6----x----1----x----1-------------------------------------|
A|--4----4----4----4----4----1----4----1-------------------------------------|
E|--6----4----6----4----2----x----2----x-------------------------------------|

Second Verse:

e|---------------------------------------------------------------------------|
B|---------------------------------------------------------------------------|
G|---------------------------------------------------------------------------|
D|----------------------------------------6-6-6-6-6-6-6-6-6-6-6-6-6-6--------|
A|-4--------4--------4-------4-----4-4----4-4-4-4-4-4-4-4-4-4-4-4-4-4--------|
E|---7-7------7-7------7-7-----7-7-----7--4-4-4-4-4-4-4-4-4-4-4-4-4-4--------|           
                              . .   . .   .   . .   . .

(Chorus)

Immediately after chorus: (again, no strum pattern)

e|---------------------------------------------------------------------------|
B|---------------------------------------------------------------------------|
G|-11----10----8-------------------------------------------------------------|
D|-x-----x-----x-------------------------------------------------------------|
A|-9-----8-----6-------------------------------------------------------------|
E|---------------------------------------------------------------------------|

...while in the background a second guitar plays this: (during guitar one's third chord)
e|---------------------------------------------------------------------------|
B|---------------------------------------------------------------------------|
G|-6------8------------------------------------------------------------------|
D|-x------x------------------------------------------------------------------|
A|-4------6------------------------------------------------------------------|
E|---------------------------------------------------------------------------|

Guitar 1:

e|---------------------------------------------------------------------------|
B|---------------------------------------------------------------------------|
G|---------------------------------------------------------------------------|  Repeat
D|---------------------------------------------------------------------------|
A|-4--------4--------4-------4-4---------------------------------------------|
E|---6-6------6-6------6-6-------6-6-----------------------------------------|

Guitar 2 (Build up to the last chorus)
e|---------------------------------------------------------------------------|
B|---------------------------------------------------------------------------|
G|---------------------------------------------------------------------------|
D|------------x------x-------8------8----------------------------------------|
A|------------4------3-------x------x----------------------------------------|
E|------------6------6-------9------9----------------------------------------|


Finish with the chorus
Tap to rate this tab
# A B C D E F G H I J K L M N O P Q R S T U V W X Y Z