Song name
# A B C D E F G H I J K L M N O P Q R S T U V W X Y Z

Make Do And Mend - Lucky tab

Song: Lucky
Artist: Make Do And Mend
Album: Everything You Ever Loved
Year: 2012
Tuning: Drop D





Intro/Both Guitars  0:02
E||--------------------------|--------------------------|
B||--------------------------|--------------------------|       cont.
G||--------------------------|--------------------------|
D||--5---5-------5---5-------|--------------------------|
A||--3---3-1-1---3---3-1-1---|--3---3-3-3-6----6--6-8---|
D||--------1-1---------1-1---|--3---3-3-3-6----6--6-8---|

--------------------------|--------------------------|
--------------------------|--------------------------|
--------------------------|--------------------------|
--5---5-------5---5-------|--------------------------|
--3---3-1-1---3---3-1-1---|--3---3-3-1-1----1--1--1--|
--------1-1---------1-1---|--3---3-3-1-1----1--1--1--|


Intro/1st Guitar  0:11
--------------------------|--------------------------|
--------------------------|--------------------------|          cont.
--------------------------|--------------------------|
--5---5-------5---5-------|--------------------------|
--3---3-1-1---3---3-1-1---|--3---3-3-3-6----6--6-8---|
--------1-1---------1-1---|--3---3-3-3-6----6--6-8---|
   
--------------------------|--------------------------|
--------------------------|--------------------------|
--------------------------|--------------------------|
--5---5-------5---5-------|--------------------------|
--3---3-1-1---3---3-1-1---|--3---3-3-1-1----1--1--1--|
--------1-1---------1-1---|--3---3-3-1-1----1--1--1--|


Intro/2nd Guitar  0:11
---------------------------|--------------------------|
-----8---------8-----------|--6--------6--6-----------| x2
--------8---------8--8b----|-----8-----------8--7-----| 
-----------10--------------|--------8--------------8--|
---------------------------|--------------------------|
---------------------------|--------------------------|





Verse/1st Guitar  0:20
--------------------------|--------------------------|
--------------------------|--------------------------|  x4
--------------------------|--7----7---7--7-7--7--7-7-|
--5----5---5--5-5--5--5-5-|--8----8---8--8-8--8--8-8-|
--3----3---3--3-3--3--3-3-|--6----6---6--6-6--6--6-6-|
--------------------------|--6----6---6--6-6--6--6-6-|

  
--------------------------|
--------------------------|
--------------------------|
--5----5---5--5-5--5--5-5-|
--3----3---3--3-3--3--3-3-|
--------------------------|


Verse/2nd Guitar  0:25
                                             PM      PM     PM    PM          
--------------------------------|---------------------------------|
--8-----------------------------|---------------------------------|     cont.
--5-----------------------------|---------12------8-----10-----8--|
--5-----------------------------|-----10------10-----10-----10----|
--------------------------------|---------------------------------|
--------------------------------|---------------------------------|

     PM      PM     PM    PM          PM      PM     PM     PM       
--------------------------------|---------------------------------|
--------------------------------|---------------------------------|
---------12------7-----8--------|---------12------8-----10-----8--|
-----10------10-----10----10-8--|-----10------10-----10-----10----|
--------------------------------|---------------------------------|
--------------------------------|---------------------------------|





Pre-Chorus/2nd Guitar  0:34
----------------------------|
----------------------------|
----------------------------|
--10--10--8--8--5--5--3--3--|
----------------------------|
----------------------------|




Chorus/1st Guitar  0:36
--------------------------|--------------------------|
--------------------------|--------------------------|  cont.
--------------------------|--------------------------|
--5--5--5--5--5--5--5--5--|--------------------------|
--3--3--3--3--3--3--3--3--|--6--6--6--6--6--6--6--6--|
--------------------------|--6--6--6--6--6--6--6--6--|
                                                            x2
--------------------------|--------------------------|
--------------------------|--------------------------|
--------------------------|--------------------------|
--------------------------|--------------------------|
--1--1--1--1--1--1--1--1--|--8--8--8--8--8--8--8--8--|
--1--1--1--1--1--1--1--1--|--8--8--8--8--8--8--8--8--|



Chorus/2nd Guitar  0:36
---------------------------|--------------------------|
------------8--8--8--8-----|-----------6--6--6--6-----|                 cont.
--8--8--8---------------8--|--8--8--8--------------8--|
---------------------------|--------------------------|
---------------------------|--------------------------|
---------------------------|--------------------------|

----------------------------|--------------------------|
-----------8--8--8----------|--------------------------|                cont.
--8--8--8-----------10--10--|--8--8--8--8--8--8--8--8--|
----------------------------|--------------------------|
----------------------------|--------------------------|
----------------------------|--------------------------|

----------------------------------|----------------------------|
--11--11--11--11--11--11--11--11--|-----------8--8--8----------|        cont.
----------------------------------|--8--8--8-----------10--10--|
----------------------------------|----------------------------|
----------------------------------|----------------------------|
----------------------------------|----------------------------|

----------------------------------|----------------------------|
--11--11--11--11--11--11--11--11--|-----------8--8--8----------|
----------------------------------|--8--8--8-----------10--10--|
----------------------------------|----------------------------|
----------------------------------|----------------------------|
----------------------------------|----------------------------|




Post-Chorus/1st Guitar  0:53
----------------------------|
----------------------------|
----------------------------|
----------------------------|
--10------------------------|
--10------------------------|


 Post-Chorus/2nd Guitar  0:53
------------------------------|---------------------------|
--13--13--11--11--8--8--6--6--|--13--13--6--6--8b------6--|     cont.
------------------------------|---------------------------|
------------------------------|---------------------------|
------------------------------|---------------------------|
------------------------------|---------------------------|

------------------------------|---------------------------|
--13--13--11--11--8--8--6--6--|--8b-----------------------|
------------------------------|---------------------------|
------------------------------|---------------------------|
------------------------------|---------------------------|
------------------------------|---------------------------|




Verse/1st Guitar  1:01
--------------------------|--------------------------|
--------------------------|--------------------------|  x6
--------------------------|--7----7---7--7-7--7--7-7-|
--5----5---5--5-5--5--5-5-|--8----8---8--8-8--8--8-8-|
--3----3---3--3-3--3--3-3-|--6----6---6--6-6--6--6-6-|
--------------------------|--6----6---6--6-6--6--6-6-|


Verse/2nd Guitar  1:01
     PM    PM    PM    PM          PM    PM    PM    PM     
-----------------------------|-----------------------------|
-----------------------------|-----------------------------|            cont.
--------8-----7-----8-----3--|--------8-----7-----7-----8--|
-----5-----5-----5-----5-----|-----5-----5-----5-----5-----|
-----------------------------|-----------------------------|
-----------------------------|-----------------------------|
                                                                 X2 
     PM    PM    PM    PM          PM    PM     PM     PM     
-----------------------------|-------------------------------|
-----------------------------|-------------------------------|
--------8-----7-----8-----3--|--------8-----10-----10-----7--|
-----5-----5-----5-----5-----|-----5-----5------5------5-----|
-----------------------------|-------------------------------|
-----------------------------|-------------------------------|

Verse/2nd Guitar  1:16
      PM      PM     PM     PM          PM      PM     PM    PM    
---------------------------------|--------------------------------|
---------------------------------|--------------------------------|     cont.
---------12------8-----10-----8--|---------12------7-----8--------|
-----10------10-----10-----10----|-----10------10-----10----10-8--|
---------------------------------|--------------------------------|
---------------------------------|--------------------------------|

      PM      PM     PM     PM          PM      PM      PM     PM    
---------------------------------|----------------------------------|
---------------------------------|----------------------------------|
---------12------8-----10-----8--|---------12------10-----10-----8--|
-----10------10-----10-----10----|-----10------10------10-----10----|
---------------------------------|----------------------------------|
---------------------------------|----------------------------------|
   


Pre-Chorus/2nd Guitar  1:24
----------------------------|----------------------------|
----------------------------|----------------------------|              cont.
----------------------------|----------------------------|
--10--10--8--8--5--5--3--3--|--10--10--8--8--5b-------3--|
----------------------------|----------------------------|
----------------------------|----------------------------|

----------------------------|---------------------------|
----------------------------|---------------------------|
----------------------------|---------------------------|
--10--10--8--8--5--5--3--3--|--10--10--8--8--5b---------|
----------------------------|---------------------------|
----------------------------|---------------------------|



Pre-Chorus/1st Guitar - 1:27
--11--11--10--10--8--8--6--6--|--11--11--10--10--8b------|
------------------------------|--------------------------|
------------------------------|--------------------------|
------------------------------|--------------------------|
------------------------------|--------------------------|
------------------------------|--------------------------|




Chorus/1st Guitar  1:32
--------------------------|--------------------------|
--------------------------|--------------------------|                  cont.
--------------------------|--------------------------|
--5--5--5--5--5--5--5--5--|--------------------------|
--3--3--3--3--3--3--3--3--|--6--6--6--6--6--6--6--6--|
--------------------------|--6--6--6--6--6--6--6--6--|
                                                        x4
--------------------------|--------------------------|
--------------------------|--------------------------|
--------------------------|--------------------------|
--------------------------|--------------------------|
--1--1--1--1--1--1--1--1--|--8--8--8--8--8--8--8--8--|
--1--1--1--1--1--1--1--1--|--8--8--8--8--8--8--8--8--|



Chorus/2nd Guitar  1:32
---------------------------|--------------------------|
------------8--8--8--8-----|-----------6--6--6--6-----|                 cont.
--8--8--8---------------8--|--8--8--8--------------8--|
---------------------------|--------------------------|
---------------------------|--------------------------|
---------------------------|--------------------------|

----------------------------|--------------------------|
-----------8--8--8----------|--------------------------|                cont.
--8--8--8-----------10--10--|--8--8--8--8--8--8--8--8--|
----------------------------|--------------------------|
----------------------------|--------------------------|
----------------------------|--------------------------|
                                                             X2
----------------------------------|----------------------------|
--11--11--11--11--11--11--11--11--|-----------8--8--8----------|        cont.
----------------------------------|--8--8--8-----------10--10--|
----------------------------------|----------------------------|
----------------------------------|----------------------------|
----------------------------------|----------------------------|

----------------------------------|----------------------------|
--11--11--11--11--11--11--11--11--|-----------8--8--8----------|
----------------------------------|--8--8--8-----------10--10--|
----------------------------------|----------------------------|
----------------------------------|----------------------------|
----------------------------------|----------------------------|





Bridge/1st Guitar  2:03
                             PM                                                
--------------------------|-----------------------------|
--------------------------|-----------------------------|               cont.
--------------------------|-----------------------------|
--5--5--5-----------8--8--|--8--8-----8--8--10--10--10--|
--3--3--3--6--6--6--6--6--|--6--6-----6--6---8---8---8--|
-----------6--6--6--------|-----------------------------|
                                  PM         
--------------------------|--------------------------|
--------------------------|--------------------------|                  cont.
--------------------------|--------------------------|
--5--5--5-----------8--8--|--8--8-----8--8--3--3--3--|
--3--3--3--6--6--6--6--6--|--6--6-----6--6--1--1--1--|
-----------6--6--6--------|--------------------------|  
                                  PM                      x2                
--------------------------|-----------------------------|
--------------------------|-----------------------------|               cont.
--------------------------|-----------------------------|
--5--5--5-----------8--8--|--8--8--8--8--8--10--10--10--|
--3--3--3--6--6--6--6--6--|--6--6--6--6--6---8---8---8--|
-----------6--6--6--------|-----------------------------|

--------------------------|--------------------------|
--------------------------|--------------------------|
--------------------------|--------------------------|
--3--3--3--3--3--3--3--3--|--3--3--3--3--3--3--3--3--|
--1--1--1--1--1--1--1--1--|--1--1--1--1--1--1--1--1--|
--------------------------|--------------------------|


Bridge/2nd Guitar  2:11
--------------------------|--------------------------|
--------4--4--------4--4--|--------4--4--6--6--4--4--|  x2
--7--7--------7--7--------|--7--7--------------------|
--------------------------|--------------------------|
--------------------------|--------------------------|
--------------------------|--------------------------|


Bridge/2nd Guitar  2:19
--------------------------|-------------------------------|
--------------------------|-------------------------------|             cont.
--5--5--5--7--7--7--8--8--|--x--8--8--10--10--12--12--12--|
--x--x--x--x--x--x--x--x--|--x--x--x---x---x---x---x---x--|
--3--3--3--5--5--5--6--6--|--x--6--6---8---8--10--10--10--|
--------------------------|-------------------------------|

--------------------------|--------------------------|
--------------------------|--------------------------|                  cont.
--5--5--5--7--7--7--8--8--|--x--5--5--7--7--3--3--3--|
--x--x--x--x--x--x--x--x--|--x--x--x--x--x--x--x--x--|
--3--3--3--5--5--5--6--6--|--x--3--3--5--5--1--1--1--|
--------------------------|--------------------------|

--------------------------|-------------------------------|
--------------------------|-------------------------------|             cont.
--5--5--5--7--7--7--8--8--|--x--8--8--10--10--12--12--12--|
--x--x--x--x--x--x--x--x--|--x--x--x---x---x---x---x---x--|
--3--3--3--5--5--5--6--6--|--x--6--6---8---8--10--10--10--|
--------------------------|-------------------------------|

----------------------------------|----------------------------------|
----------------------------------|----------------------------------|
--10--10--10--10--10--10--10--10--|--10--10--10--10--10--10--10--10--|
---x---x---x---x---x---x---x---x--|---x---x---x---x---x---x---x---x--|
---8---8---8---8---8---8---8---8--|---8---8---8---8---8---8---8---8--|
----------------------------------|----------------------------------|





Chorus/1st Guitar  1:32
--------------------------|--------------------------|
--------------------------|--------------------------|                  cont.
--------------------------|--------------------------|
--5--5--5--5--5--5--5--5--|--------------------------|
--3--3--3--3--3--3--3--3--|--6--6--6--6--6--6--6--6--|
--------------------------|--6--6--6--6--6--6--6--6--|
                                                        x4
--------------------------|--------------------------|
--------------------------|--------------------------|
--------------------------|--------------------------|
--------------------------|--------------------------|
--1--1--1--1--1--1--1--1--|--8--8--8--8--8--8--8--8--|
--1--1--1--1--1--1--1--1--|--8--8--8--8--8--8--8--8--|



Chorus/2nd Guitar  1:32
---------------------------|--------------------------|
------------8--8--8--8-----|-----------6--6--6--6-----|                 cont.
--8--8--8---------------8--|--8--8--8--------------8--|
---------------------------|--------------------------|
---------------------------|--------------------------|
---------------------------|--------------------------|

----------------------------|--------------------------|
-----------8--8--8----------|--------------------------|                cont.
--8--8--8-----------10--10--|--8--8--8--8--8--8--8--8--|
----------------------------|--------------------------|
----------------------------|--------------------------|
----------------------------|--------------------------|
                                                                 X2
----------------------------------|----------------------------|
--11--11--11--11--11--11--11--11--|-----------8--8--8----------|        cont.
----------------------------------|--8--8--8-----------10--10--|
----------------------------------|----------------------------|
----------------------------------|----------------------------|
----------------------------------|----------------------------|

----------------------------------|----------------------------|
--11--11--11--11--11--11--11--11--|-----------8--8--8----------|
----------------------------------|--8--8--8-----------10--10--|
----------------------------------|----------------------------|
----------------------------------|----------------------------|
----------------------------------|----------------------------|



Ending/1st Guitar  3:05
---------------------------------||
---------------------------------||
---------------------------------||
--5------------------------------||
--3------------------------------||
---------------------------------||


Ending/2nd Guitar  3:05
---------------------------------||
---------------------------------||
--8------------------------------||
---------------------------------||
---------------------------------||
---------------------------------||





Tablature Legend
----------------
PM - palm mute
b - bend
L - tied note
x - dead note
g - grace note
(n) - ghost note
> - accentuded note
PH - pitch harmonic
h - hammer on
p - pull off
Tap to rate this tab
 
# A B C D E F G H I J K L M N O P Q R S T U V W X Y Z