Make Me Famous - Once You Killed A Cow You Gotta Make A Burger tab

Make me Famous - Once You Killed A Cow, You Gotta Make A Burger
Drop D
i learned this song by ear and it sounds good to me so this is it (: 

0:03 - 0:19 (from 0:10 - 0:15 let it ring)
E|---------------------------------------------------------------------------|
B|---------------------------------------------------------------------------|
G|---------------------------------------------------------------------------|
D|---------------------------------------------------------------------------|
A|-00-0-00-00-0-000000---Im sure you can figure out the rythm:)--------------|
E|-00-0-00-00-0-000000-------------------------------------------------------|
   .. . .. . .. ......

0:20 - 0:35
e|---------------------------------------------------------------------------|
B|---------------------------------------------------------------------------|
G|---------------------------------------------------------------------------|
D|-0-----------0----------8----------5---------------------------------------|
A|-0-----------0----------8----------5-----play this x 2---------------------|
E|-0-----------0----------8----------5---------------------------------------|


Our mission for this morning is.......STRUMING
0:36 - 0:54
e|------------------------------------------|--------------------------------|
B|------------------------------------------|--------------------------------|
G|------------------------------------------|--------------------------------|
D|-0----3----8----10----0----3----8----10---|-0------------------------------|
A|-0----3----8----10----0----3----8----10---|-0------------------------------|
E|-0----3----8----10----0----3----8----10---|-0------------------------------|


0:55 - 1:10
e|---------------------------------------------------------------------------|
B|---------------------------------------------------------------------------|
G|---------------------------------------------------------------------------|
D|---0-----0----0--------0---0------0----------------------------------------|
A|-0-0-000-0-00-0-0000-0-0-0-0-0000-0--YOu can find the rythm here-----------|
E|-0-0-000-0-00-0-0000-0-0-0-0-0000-0----------------------------------------|
   .   ...   ..   ...  .   .   ....

1:11 - 1:18   (at 1:10 pickslide from fret 12)
e|---------------------------------------------------------------------------|
B|---------------------------------------------------------------------------|
G|---------------------------------------------------------------------------|
D|---------------------------------------------------------------------------|
A|-0-0-000-0-00-0-0000-0-0-0-0-0000-0----------------------------------------|
E|-1-1-111-1-11-1-1111-1-1-1-1-1111-1--find the rythm (:---------------------|
   . . ... . .. . .... . . . . .... .

1:19 - 1:29
e|---------------------------------------------------------------------------|
B|---------------------------------------------------------------------------|
G|---------------------------------------------------------------------------|
D|---0-----0--------------0-----------5--------------------------------------|
A|-0-0-000-0-00-0-0-0-000-0-000-000---5-5555---------------------------------|
E|-0-0-000-0-00-0-0-0-000-0-000-000---5-5555---------------------------------|
   .   ...   .. . . . ...   ... ...     ....

STRUMING
1:30 - 2:20
e|---------------------------------------------------------------------------|
B|---------------------------------------------------------------------------|
G|---------------------------------------------------------------------------|
D|-5---8---10---0---8---10---5---8---10---5---8---10---0---5---------0-------|
A|-5---8---10---0---8---10---5---8---10---5---8---10---0---5---------0-------|
E|-5---8---10---0---8---10---5---8---10---5---8---10---0---5---------0-------|

                     Breakdown (: awesome
                      2:21 - 2:37
e|-----------0----|----------------------------------------------------------|
B|-----------0----|----------------------------------------------------------|
G|-----------0----|----------------------------------------------------------|
D|-0----0----0----|----------------------------------------------------------|
A|-0----0----0----|--0000-00-00-0000-000-0000 00 00 0000000-0000000--x4------|
E|-0----0----0----|--0000-00-00-0000-000-0000 00 00 0000000-0000000----------|
                     .... .. .. .... ... .... .. .. ....... .......

2:38 - 2:45
e|---------------------------------------------------------------------------|
B|---------------------------------------------------------------------------|
G|---------------------------------------------------------------------------|
D|---------------------------------------------------------------------------|
A|-0000-00-00-0000-000-0000 00 00 0000000-0000000---x2-----------------------|
E|-1111-11-11-1111-111-1111-11-11-1111111-1111111----------------------------|
   .... .. .. .... ... .... .. .. ....... .......

2:46 - 2:55
e|---------------------------------------------------------------------------|
B|---------------------------------------------------------------------------|
G|---------------------------------------------------------------------------|
D|---------------------------------------------------------------------------|
A|-0000-00-00-0000-000-0000 00 00 0000000-0000000---x2-----------------------|
E|-0000-00-00-0000-000-0000 00 00 0000000-0000000----------------------------|
   .... .. .. .... ... .... .. .. ....... .......

END

. palm mutes
Tap to rate this tab
 
# A B C D E F G H I J K L M N O P Q R S T U V W X Y Z