Song name
# A B C D E F G H I J K L M N O P Q R S T U V W X Y Z

Make Me Famous - Locked Loaded tab

Make Me Famous - Locked and Loaded

Intro Riff
D|----------------------------------------------------------------|
A|----------------------------------------------------------------|
F|----------------------------------------------------------------|
C|(*16)----(*16)---(*16)---(*8)----(*8)---------------------------|
G|----------------------------------------------------------------|
C|-14-------12-------9------10------12----------------------------|


Breakdown

D|--------------------------------------------------------------------|
A|----------------------3~--------------------------------------------|
F|----------------------2~--------------------------------------------|
C|-0000--0000--00-00000-0~--------------------------------------------|
G|-0000--0000--00-00000-0~--------------------------------------------|
C|-0000~-0000~-00~00000-0~--------------------------------------------|

D|--------------------------------------------------------------------|
A|--------------------------------------------------------------------|
F|--------------------------------------------------------------------|
C|-0000--0000--00-0000--0000--0000--00--0000--------------------------|
G|-0000--0000--00-0000--0000--0000--00--0000--------------------------|
C|-0000--0000--00-0000--0000--0000--00--0000--------------------------|


D|--------------------------------------------------------------------|
A|--------------------------------------------------------------------|
F|-------------------------------------------------*2-----------------|
C|-0000--0000--00-0000--0000--0000--00--0000--------------------------|
G|-0000--0000--00-0000--0000--0000--00--0000--------------------------|
C|-0000~-0000~-00~0000~-0000~-0000~-00~-0000--------------------------|

Fill

D|--------------------------|
A|--------------------------|
F|--------------------------|
C|-3-1-0-3-6-3--------------|
G|-3-1-0-3-6-3--------------|
C|-3-1-0-3-6-3--------------|

Riff

D|-----------------------------------------------------------------|
A|-----------------------------------------------------------------|
F|-----------------------------------------------------------------|
C|----------------------------55553333-----------------------------|
G|-5--5--5--8--8--5-4--4--4---55553333-----------------------------|
C|--00-00-00-00-00-0-00-00-0--55553333-----------------------------|

D|-----------------------------------------------------------------|
A|-----------------------------------------------------------------|
F|-----------------------------------------------------------------|
C|----------------------------------3-1-0-3-6-3--------------------|
G|-5--5--5--8--8h10h8-8-7--5--5--5--3-1-0-3-6-3--------------------|
C|--00-00-00-00-------------00-00-0-3-1-0-3-6-3--------------------|

D|-----------------------------------------------------------------|
A|-----------------------------------------------------------------|
F|-----------------------------------------------------------------|
C|----------------------------55553333-----------------------------|
G|-5--5--5--8--8--5-4--4--4---55553333-----------------------------|
C|--00-00-00-00-00-0-00-00-0--55553333-----------------------------|

D|-----------------------------------------------------------------|
A|-----------------------------------------------------------------|
F|-----------------------------------------------------------------|
C|--------------------------------------------0~-------------------|
G|-5--5--5--8--8h10h8-8-7--5--5--5------------0~-------------------|
C|--00-00-00-00-------------00-00-0-55557777--0~-------------------|

Chorus
D|-----------------------------------------------------------------|
A|-----------------------------------------------------------------|
F|(*16)(*8)-(*8)--(*16)-(*8)-(*4)-(*4)-----------------------------|
C|-12----3----2----10----12----3----2------------------------------|
G|-12----3----2----10----12----3----2------------------------------|
C|-12----3----2----10----12----3----2------------------------------|

Breakdown

D|-----------------------------------------------------------------|
A|-----------------------------------------------------------------|
F|-----------------------------------------------------------------|
C|-0000--0000--00-0000--0000--0000--00--0000-----------------------|
G|-0000--0000--00-0000--0000--0000--00--0000-----------------------|
C|-0000~-0000~-00~0000~-0000~-0000~-00~-0000-----------------------|


D|-----------------------------------------------------------------|
A|-----------------------------------------------------------------|
F|-----------------------------------------------------------------|
C|-0000--0000--00-0000--0000--0000--00--0000-----------------------|
G|-0000--0000--00-0000--0000--0000--00--0000-----------------------|
C|-0000--0000--00-0000--0000--0000--00--0000-----------------------|


Verse 2 Riff

D|-----------------------------------------------------------------|
A|-----------------------------------------------------------------|
F|-----------------------------------------------------------------|
C|----------------------------55553333-----------------------------|
G|-5--5--5--8--8--5-4--4--4---55553333-----------------------------|
C|--00-00-00-00-00-0-00-00-0--55553333-----------------------------|

D|-----------------------------------------------------------------|
A|-----------------------------------------------------------------|
F|-----------------------------------------------------------------|
C|-----------------------------------------------------------------|
G|-5--5--5--8--8h10h8-8-7--5--5--5---------------------------------|
C|--00-00-00-00-------------00-00-0-55557777-----------------------|


Pre Breakdown


Rhythm
D|-----------------------------------------------------------------|
A|-----------------------------------------------------------------|
F|-----------------------------------------------------------------|
C|-0-----0----3-1-0-3-6-3-0----0-----------------------------------|
G|-0-----0----3-1-0-3-6-3-0----0-----------------------------------|
C|-0~----0~---3-1-0-3-6-3-0~---0~----------------------------------|

Lead
D|-----------------------------------------------------------------|
A|-----------------------------------------------------------------|
F|-----------------------------------------------------------------|
C|---------------------------3-1-0-3-6-3---------------------------|
G|-5--5--5--8--8--5-4--4--4--3-1-0-3-6-3---------------------------|
C|--00-00-00-00-00-0-00-00-0-3-1-0-3-6-3---------------------------|


D|-----------------------------------------------------------------|
A|-----------------------------------------------------------------|
F|-----------------------------------------------------------------|
C|-----------------------------------------------------------------|
G|-5--5--5--8--8h10h8-8-7--5--5--5---------------------------------|
C|--00-00-00-00-------------00-00-0-55557777-----------------------|


Breakdown

D|-----------------------------------------------------------------|
A|-----------------------------------------------------------------|
F|-----------------------------------------------------------------|
C|-00000---00000--000000-00000--00000------------------------------|
G|-00000---00000--000000-00000--00000----DRUM FILLL----------------|
C|-00000~--00000~-000000-00000~-00000~-----------------------------|

D|-----------------------------------------------------------------|
A|-----------------------------------------------------------------|
F|-----------------------------------------------------------------|
C|-00000---00000--000000-00000--00000------------------------------|
G|-00000---00000--000000-00000--00000-----------DRUM FILL----------|
C|-00000---00000--000000-00000~-00000~-----------------------------|


Chorus
D|-----------------------------------------------------------------|
A|-----------------------------------------------------------------|
F|(*16)(*8)-(*8)-(*16)--(*8)--(*4)-(*4)----------------------------|
C|-12----3----2----10----12----3----2------------------------------|
G|-12----3----2----10----12----3----2------------------------------|
C|-12----3----2----10----12----3----2------------------------------|


Breakdown

D|-----------------------------------------------------------------|
A|-----------------------------------------------------------------|
F|-----------------------------------------------------------------|
C|-0000--0000--00-0000--0000--0000--00--0000-----------------------|
G|-0000--0000--00-0000--0000--0000--00--0000-----------------------|
C|-0000~-0000~-00~0000~-0000~-0000~-00~-0000-----------------------|


D|-----------------------------------------------------------------|
A|-----------------------------------------------------------------|
F|-----------------------------------------------------------------|
C|-0000--0000--00-0000--0000--0000--00--0000-----------------------|
G|-0000--0000--00-0000--0000--0000--00--0000-----------------------|
C|-0000--0000--00-0000--0000--0000--00--0000-----------------------|

Outro Riff

D|-----------------------------------------------------------------|
A|-----------------------------------------------------------------|
F|-----------------------------------------------------------------|
C|----------------------------55553333-----------------------------|
G|-5--5--5--8--8--5-4--4--4---55553333-----------------------------|
C|--00-00-00-00-00-0-00-00-0--55553333-----------------------------|

D|-----------------------------------------------------------------|
A|-----------------------------------------------------------------|
F|-----------------------------------------------------------------|
C|-----------------------------------------------------------------|
G|-5--5--5--8--8h10h8-8-7--5--5--5---------------------------------|
C|--00-00-00-00-------------00-00-0-55557777-----------------------|
Tap to rate this tab
# A B C D E F G H I J K L M N O P Q R S T U V W X Y Z