Song name
# A B C D E F G H I J K L M N O P Q R S T U V W X Y Z

Make Them Suffer - Neverbloom tab

this so song is played on a 7 string, I tabbed it for a 6 string.
this is tabbed completely by ear so sorry for any mistakes.
this is the first song I have tabbed, so again sorry for mistakes.
watch this cover http://www.youtube.com/watch?v=vS6lUqvtw50 if you get stuck with how 
the song is played, the tab is not of/ from the cover but it will help you with the 
timing's of the tab.

these chords are played continually in the actual song, I prefer to hold them
B ]------------------------|
F#]------------------------|
D ]------------------------|
A ]-8-7-5-4-8-7-4-4-3-1----|
E ]-5-5-5-5-4-4-4-1-1-1----|
A ]-5-5-5-0-4-4-4-1-1-1----|
chords
first 4 breakdowns
B ]-------------------------------|
F#]-------------------------------|
D ]----------------------7--------|
A ]-----8---7---5/4-------7-5-4-5-|
E ]-------------------------------|
A ]--5-5--5---5-------------------|

B ]-----------------------------------|
F#]-----------------------------------|
D ]-----------------------7------7-8--|
A ] -------8---7---5/4-5----8-7-5-----|
E ]-----------------------------------|
A ]---5-5----5---5--------------------|

B ]---------------------------------|
F#]---------------------------------|
D ]--------------------7------------|
A ]------8---7---5/4-5--7-4-5-4-----|
E ]---------------------------------|
A ]--5-5---5---5--------------------|

B ]-------------------------------------|
F#]-------------------------------------|
D ]-------------------7-----------------|
A ]-----8---7--5/4-5---7-5-4-5----------|
E ]----------------------------5--------|
A ]-5-5--5---5--------------------------|
next 4 breakdowns.
B ]-----------------------------------|
F#]-----------------------------------|
D ]------------------7----------------|
A ]-------8-7-5--4-5--5-4-5-7-5-4-5---|
E ]-----------------------------------|
A ] -5-5------------------------------|

B ]--------------------------------|
F#]--------------------------------|
D ]-----------------7-------7--7/8-|
A ]------8-7-5--4-5---5-4-5--5-----|
E ]--------------------------------|
A ]--5-5---------------------------|

B ]-------------------------------------|
F#]-------------------------------------|
D ]------------------7------------------|
A ]-------8-7-5--4-5--5-4-5-7-5-4-------|
E ]------------------------------5------|
A ] -5-5--------------------------------|

B ]---------------------------------------------|
F#]---------------------------------------------|
D ]----------------7----------------------------|
A ]-----8-7-5--4-5---5-4-5-7-5-7/8--------------|
E ]---------------------------------------------|
A ]-5-5-----------------------------------------|
next sick break down
B ]---------------------------------------------------|
F#]---------------------------------------------------|
D ]--------------------------------7----------------7-|
A ]-------------8----7-------5-------8-----7--8-------|
E ]---------------------------------------------------|
A ]-5-555-555-----5-----5-5-----5-----5-5---5----5----|

B ]-----------------------------|
F#]-----------------------------|
D ]-----------7-----------------|
A ]---8-7-5-4--7-5-4------------|
E ]-----------------------------|
A ]-----------------------------|
tremlo bit
B ]----------------------------|
F#]----------------------------|
D ]-------------------7----7-8-|
A ]-------8-7-5-4-5-7--5-4-----|
E ]----------------------------|
A ]--4-------------------------|

B ]---------------------------------------------------|
F#]---------------------------------------------------|
D ]--------------------------------7----------------7-|
A ]-------------8----7-------5-------8-----7--8-------|
E ]---------------------------------------------------|
A ]-5-555-555-----5-----5-5-----5-----5-5---5----5----|

B ]-------------------|
F#]-------------------|
D ]------------7--7/8-|
A ]----8-7-5-4--5-----|
E ]-------------------|
A ]-------------------|

B ]--------------------------------------------------------------|
F#]--------------------------------------------------------------|
D ]--------------------------------------------------------------|
A ]--------------------------------------------------------------|
E ]-----5---------------5-----5----5--5---------------5---5--5h6-|
A ]------5-5-5-5-5-5-5-5--5-5--5-5--5--4-4-4-4-4-4-4-4-4-4-4-----|
back to this one
B ]---------------------------------------------------|
F#]---------------------------------------------------|
D ]--------------------------------7----------------7-|
A ]-------------8----7-------5-------8-----7--8-------|
E ]---------------------------------------------------|
A ]-5-555-555-----5-----5-5-----5-----5-5---5----5----|

B ]-----------------------------|
F#]-----------------------------|
D ]-----------7-----------------|
A ]---8-7-5-4--7-5-4------------|
E ]-----------------------------|
A ]-----------------------------|
tremlo bit
B ]----------------------------|
F#]----------------------------|
D ]-------------------7----7-8-|
A ]-------8-7-5-4-5-7--5-4-----|
E ]----------------------------|
A ]--4-------------------------|

B ]---------------------------------------------------|
F#]---------------------------------------------------|
D ]--------------------------------7----------------7-|
A ]-------------8----7-------5-------8-----7--8-------|
E ]---------------------------------------------------|
A ]-5-555-555-----5-----5-5-----5-----5-5---5----5----|

B ]-------------------|
F#]-------------------|
D ]------------7--7/8-|
A ]----8-7-5-4--5-----|
E ]-------------------|
A ]-------------------|


little bit diffrent to the last one but same timing

B ]----------------------------------------------------------------------|
F#]----------------------------------------------------------------------|
D ]----------------------------------------------------------------------|
A ]----------------------------------------------------------------------|
E ]-----------------------------------------------------------------5h6--|
A ]8-5-5-5-5-5-5-5-5-8-5-5-8-5-5-8-5--7-4-4-4-4-4-4-4-4-7-4-4-7-4-4------|

then this

B ]------------------------------------------------------------------|
F#]------------------------------------------------------------------|
D ]------------------------------------------------------------------|
A ]------------------------------------------------------------------|
E ]-----5---------------5-----5----5---5----------------5----888-777-|
A ]------5-5-5-5-5-5-5-5--5-5--5-5--5----5-5-5-5-5-5-5-5-5-5---------|

B ]------------------------------------------------------------------|
F#]------------------------------------------------------------------|
D ]------------------------------------------------------------------|
A ]------------------------------------------------------------------|
E ]-----5---------------5-----5----5---5----------------5-----777777-|
A ]------4-4-4-4-4-4-4-4--4-4--4-4--4----4-4-4-4-4-4-4-4-4-4---------|

this bit
B ]-------------------------------------------------------------------------|
F#]-------------------------------------------------------------------------|
D ]-------------------------------------------------------------------------|
A ]-----xxx--xxx--8--8888888888--xxx-xxx-8888-7777-5555---------------------|
E ]-----xxx--xxx--5--5555555555--xxx-xxx-5555-5555-5555---------------------|
A ]-----xxx--xxx--5--5555555555--xxx-xxx-5555-5555-5555---------------------|

B ]-------------------------------------------------------------------------|
F#]-------------------------------------------------------------------------|
D ]-------------------------------------------------------------------------|
A ]-----xxx--xxx--4--4444444444--xxx-xxx-4444-3333-1111---------------------|
E ]-----xxx--xxx--1--1111111111--xxx-xxx-1111-1111-1111---------------------|
A ]-----xxx--xxx--1--1111111111--xxx-xxx-1111-1111-1111---------------------|


x2
back to the chord progression of the intro

B ]------------------------|
F#]------------------------|
D ]------------------------|
A ]-8-7-5-8-7-4-4-3-1------|
E ]-5-5-5-4-4-4-1-1-1------|
A ]-5-5-5-4-4-4-1-1-1------|

B ]------------------------------------|
F#]------------------------------------|
D ]------------------------------------|
A ]---0~~xx-x-x------------------1-----|
E ]---0~~xx-x-x------------------1-----|
A ]---0~~xx-x-x--8 0-4-0-5-0-4/1-1-----|

B ]---------------------------------------|
F#]---------------------------------------|
D ]---------------------------------------|
A ]--4--54/1-1----------------------------|
E ]--4--54/1-1----------------------------|
A ]--4--54/1-1----------------------------|

B ]--------------------------------------------------|
F#]--------------------------------------------------|
D ]--------------------------------------------------|
A ]-1-------1----------------------------------------|
E ]-1-------1--------5-------5-----------------------|
A ]-1-00-00-1-00-00----00-00---8-5-4-5-4-------------|

B ]---------------------------------------------------------------------|
F#]---------------------------------------------------------------------|
D ]---------------------------------------------------------------------|
A ]-1-------1-------4---------------------------------------------------|
E ]-1-------1-------4---------------------------------------------------|
A ]-1-11-11-1-11-11-4-44-44-4h5p4p0-1h4p1p0-----------------------------|

B ]--------------------------------------|
F#]--------------------------------------|
D ]--------------------------------------|
A ]--------------------------------------|
E ]-----------------5------5-------------|
A ]-1-00-00-0-00-00--00-00---8-5-4-5-4---|

B ]---------------------------------------------------------------------|
F#]---------------------------------------------------------------------|
D ]---------------------------------------------------------------------|
A ]-1-------1-------4---------------------------------------------------|
E ]-1-------1-------4---------------------------------------------------|
A ]-1-11-11-1-11-11-4-44-44-4h5p4p0h4-----------------------------------|

B ]------------------------------------|
F#]------------------------------------|
D ]------------------------------------|
A ]--1---------------------------------|
E ]--1--------------5------5-----------|
A ]--1-00-00-0-0-----00-00--8-5-4-5-4--|

B ]-----------------------------------------------------------------|
F#]-----------------------------------------------------------------|
D ]-----------------------------------------------------------------|
A ]-1-----------4---------------------------------------------------|
E ]-1-----------4---------------------------------------------------|
A ]-1-11-11-1-1-4-44-44--4h5p4p0-1h4p1p0----------------------------|

B ]------------------------------------|
F#]------------------------------------|
D ]------------------------------------|
A ]--1---------------------------------|
E ]--1--------------5------5-----------|
A ]--1-00-00-0-0-----00-00--8-5-4-5-4--|

B ]-----------------------------------------|
F#]-----------------------------------------|
D ]-----------------------------------------|
A ]-1-----------4---------------------------|
E ]-1-----------4---------------------------|
A ]-1-11-11-1-1-4-44-44--4h5p4p0h1----------|

B ]-------------------------------------------------------|
F#]-------------------------------------------------------|
D ]-------------------------------------------------------|
A ]-xx---1~~----1--xx--0~~--------------------------------|
E ]-xx---1~~----1--xx--0~~--------------------------------|
A ]-xx---0~~----0--xx--0~~--------------------------------|

B ]---------------------------------------------------------|
F#]---------------------------------------------------------|
D ]---------------------------------------------------------|
A ]---3-1-0-1-3-1-3-----------------------------------------|
E ]---3-1-0-1-3-1-3-----------------------------------------|
A ]---3-1-0-0-3-1-3-----------------------------------------|


B ]-------------------------------------------|
F#]-------------------------------------------|
D ]-------------------------------------------|
A ]---x-x--1---1-x-x---0----------------------|
E ]---x-x--1---1-x-x---0----------------------|
A ]---x-x--0---0-x-x---0----------------------|

B ]------------------------------------------------------------|
F#]------------------------------------------------------------|
D ]------------------------------------------------------------|
A ]---3-1-0-1-3-1-3-----1-1------------------------------------|
E ]---3-1-0-1-3-1-3-----1-1------------------------------------|
A ]---3-1-0-0-3-1-3-----0-0------------------------------------|
                        x x
B ]---------------------------|
F#]---------------------------|
D ]---------------------------|
A ]---------------1-----------|
E ]--0--0-0--0--0-1-0-0-0-----|
A ]--0--0-0--0--0-0-0-0-0-----|

B ]-----------------------------|
F#]-----------------------------|
D ]-----------------------------|
A ]---------------1---1---1-----|
E ]--0--0-0--0--0-1-0-1-0-1-----|
A ]--0--0-0--0--0-0-0-0-0-0-----|

B ]---------------------------|
F#]---------------------------|
D ]---------------------------|
A ]---------------1-----------|
E ]--0--0-0--0--0-1-0-0-0-----|
A ]--0--0-0--0--0-0-0-0-0-----|

B ]---------------------|
F#]---------------------|
D ]---------------------|
A ]-----------------4---|
E ]--0--0-0--0--0----5--|
A ]--0--0-0--0--0-4---6-|

B ]---------------------------|
F#]---------------------------|
D ]---------------------------|
A ]---------------1-----------|
E ]--0--0-0--0--0-1-0-0-0-----|
A ]--0--0-0--0--0-0-0-0-0-----|

B ]-----------------------------|
F#]-----------------------------|
D ]-----------------------------|
A ]---------------1---1---1-----|
E ]--0--0-0--0--0-1-0-1-0-1-----|
A ]--0--0-0--0--0-0-0-0-0-0-----|

B ]---------------------------|
F#]---------------------------|
D ]---------------------------|
A ]---------------1-----------|
E ]--0--0-0--0--0-1-0-0-0-----|
A ]--0--0-0--0--0-0-0-0-0-----|

B ]---------------------|
F#]---------------------|
D ]---------------------|
A ]-----------------4---|
E ]--0--0-0--0--0----5--|
A ]--0--0-0--0--0-4---6-|

B ]-------------------------------|
F#]-------------------------------|
D ]-------------------------------|
A ]-------------------------------|
E ]-0-0-0--0--0-0--0-0-0----------|
A ]-0-0-0--0--0-0--0-0-0----------|

B ]-------------------------------------|
F#]-------------------------------------|
D ]-------------------------------------|
A ]--3-1-0-1----------------------------|
E ]--3-1-0-1-1b-------------------------|
A ]--3-1-0-1-1b-------------------------|

B ]--------------|
F#]--------------|
D ]--------------|
A ]--------------|
E ]-0-0-0--0~~---|
A ]-0-0-0--0~~---|

B ]--------------|
F#]--------------|
D ]--------------|
A ]--------------|
E ]-0-0-0--0~~---|
A ]-0-0-0--0~~---|

B ]------------------------------|
F#]------------------------------|
D ]------------------------------|
A ]--3-1-0-1-3-1-0---------------|
E ]--3-1-0-1-3-1-0---------------|
A ]--3-1-0-1-3-1-0---------------|

B ]-------------------------------|
F#]-------------------------------|
D ]-------------------------------|
A ]-------------------------------|
E ]-0-0-0--0--0-0--0-0-0----------|
A ]-0-0-0--0--0-0--0-0-0----------|

B ]-------------------------------------|
F#]-------------------------------------|
D ]-------------------------------------|
A ]--3-1-0-1----------------------------|
E ]--3-1-0-1-1b-------------------------|
A ]--3-1-0-1-1b-------------------------|

B ]--------------|
F#]--------------|
D ]--------------|
A ]--------1-----|
E ]-0-0-0--1~~---|
A ]-0-0-0--0~~---|

B ]--------------|
F#]--------------|
D ]--------------|
A ]--------1-----|
E ]-0-0-0--1~~---|
A ]-0-0-0--0~~---|

B ]--------------------------------|
F#]--------------------------------|
D ]--------------------------------|
A ]--3-1-0-1-3-1-0--1~-------------|
E ]--3-1-0-1-3-1-0--1~-------------|
A ]--3-1-0-1-3-1-0--0~-------------|

B ]---------------------------------|
F#]---------------------------------|
D ]---------------------------------|
A ]--3-1-0-1-3-1-0-1/4--------------|
E ]--3-1-0-1-3-1-0-1/4--------------|
A ]--3-1-0-1-3-1-0-1/4--------------|

B ]------------------------|
F#]------------------------|
D ]------------------------|
A ]-8-7-5-4-8-7-4-4-3-1----|
E ]-5-5-5-5-4-4-4-1-1-1----|
A ]-5-5-5-0-4-4-4-1-1-1----|

first 4 breakdowns
B ]-------------------------------|
F#]-------------------------------|
D ]----------------------7--------|
A ]-----8---7---5/4-------7-5-4-5-|
E ]-------------------------------|
A ]--5-5--5---5-------------------|

B ]---------------------------------|
F#]---------------------------------|
D ]-----------------------7-----7-8-|
A ] -------8---7---5/4-5----8-7-----|
E ]---------------------------------|
A ]---5-5----5---5------------------|

B ]---------------------------------|
F#]---------------------------------|
D ]--------------------7------------|
A ]------8---7---5/4-5--7-4-5-4-----|
E ]---------------------------------|
A ]--5-5---5---5--------------------|

B ]-------------------------------------|
F#]-------------------------------------|
D ]-------------------7-----------------|
A ]-----8---7--5/4-5---7-5-4-5----------|
E ]----------------------------5--------|
A ]-5-5--5---5--------------------------|
next 4 breakdowns.
B ]-----------------------------------|
F#]-----------------------------------|
D ]------------------7----------------|
A ]-------8-7-5--4-5--5-4-5-7-5-4-5---|
E ]-----------------------------------|
A ] -5-5------------------------------|

B ]--------------------------------|
F#]--------------------------------|
D ]-----------------7-------7--7/8-|
A ]------8-7-5--4-5---5-4-5--5-----|
E ]--------------------------------|
A ]--5-5---------------------------|

B ]-------------------------------------|
F#]-------------------------------------|
D ]------------------7------------------|
A ]-------8-7-5--4-5--5-4-5-7-5-4-------|
E ]------------------------------5------|
A ] -5-5--------------------------------|

B ]---------------------------------------------|
F#]---------------------------------------------|
D ]----------------7----------------------------|
A ]-----8-7-5--4-5---5-4-5-7-5-7/8--------------|
E ]---------------------------------------------|
A ]-5-5-----------------------------------------|
next sick break down
B ]---------------------------------------------------|
F#]---------------------------------------------------|
D ]--------------------------------7----------------7-|
A ]-------------8----7-------5-------8-----7--8-------|
E ]---------------------------------------------------|
A ]-5-555-555-----5-----5-5-----5-----5-5---5----5----|

B ]-----------------------------|
F#]-----------------------------|
D ]-----------7-----------------|
A ]---8-7-5-4--7-5-4------------|
E ]-----------------------------|
A ]-----------------------------|
tremlo bit
B ]----------------------------|
F#]----------------------------|
D ]-------------------7----7-8-|
A ]-------8-7-5-4-5-7--5-4-----|
E ]----------------------------|
A ]--4-------------------------|

B ]---------------------------------------------------|
F#]---------------------------------------------------|
D ]--------------------------------7----------------7-|
A ]-------------8----7-------5-------8-----7--8-------|
E ]---------------------------------------------------|
A ]-5-555-555-----5-----5-5-----5-----5-5---5----5----|

B ]-------------------|
F#]-------------------|
D ]------------7--7/8-|
A ]----8-7-5-4--5-----|
E ]-------------------|
A ]-------------------|

B ]--------------------------------------------------------------|
F#]--------------------------------------------------------------|
D ]--------------------------------------------------------------|
A ]--------------------------------------------------------------|
E ]-----5---------------5-----5----5--5---------------5---5--5h6-|
A ]------5-5-5-5-5-5-5-5--5-5--5-5--5--4-4-4-4-4-4-4-4-4-4-4-----|
back to this one
B ]---------------------------------------------------|
F#]---------------------------------------------------|
D ]--------------------------------7----------------7-|
A ]-------------8----7-------5-------8-----7--8-------|
E ]---------------------------------------------------|
A ]-5-555-555-----5-----5-5-----5-----5-5---5----5----|

B ]-----------------------------|
F#]-----------------------------|
D ]-----------7-----------------|
A ]---8-7-5-4--7-5-4------------|
E ]-----------------------------|
A ]-----------------------------|
tremlo bit
B ]----------------------------|
F#]----------------------------|
D ]-------------------7----7-8-|
A ]-------8-7-5-4-5-7--5-4-----|
E ]----------------------------|
A ]--4-------------------------|

B ]---------------------------------------------------|
F#]---------------------------------------------------|
D ]--------------------------------7----------------7-|
A ]-------------8----7-------5-------8-----7--8-------|
E ]---------------------------------------------------|
A ]-5-555-555-----5-----5-5-----5-----5-5---5----5----|

B ]-------------------|
F#]-------------------|
D ]------------7--7/8-|
A ]----8-7-5-4--5-----|
E ]-------------------|
A ]-------------------|



B ]--------------------------------------------------------------|
F#]--------------------------------------------------------------|
D ]--------------------------------------------------------------|
A ]--------------------------------------------------------------|
E ]-----5---------------5-----5----5--5---------------5---5--5h6-|
A ]------5-5-5-5-5-5-5-5--5-5--5-5--5--4-4-4-4-4-4-4-4-4-4-4-----|

B ]--------------------------------------------------------------------|
F#]--------------------------------------------------------------------|
D ]--------------------------------------------------------------------|
A ]--------------------------------------------------------------------|
E ]-----5---------------5-----5----5---5----------------5----888-777---|
A ]------5-5-5-5-5-5-5-5--5-5--5-5--5----5-5-5-5-5-5-5-5-5-5-----------|

B ]------------------------------------------------------------------|
F#]------------------------------------------------------------------|
D ]------------------------------------------------------------------|
A ]------------------------------------------------------------------|
E ]-----5---------------5-----5----5---5----------------5-----777777-|
A ]------4-4-4-4-4-4-4-4--4-4--4-4--4----4-4-4-4-4-4-4-4-4-4---------|

this bit
B ]-------------------------------------------------------------------------|
F#]-------------------------------------------------------------------------|
D ]-------------------------------------------------------------------------|
A ]-----xxx--xxx--8--8888888888--xxx-xxx-8888-7777-5555---------------------|
E ]-----xxx--xxx--5--5555555555--xxx-xxx-5555-5555-5555---------------------|
A ]-----xxx--xxx--5--5555555555--xxx-xxx-5555-5555-5555---------------------|

B ]------------------------------------------------------------------------|
F#]------------------------------------------------------------------------|
D ]------------------------------------------------------------------------|
A ]-----xxx--xxx--4--4444444444--xxx-xxx-4444-3333-1111--------------------|
E ]-----xxx--xxx--1--1111111111--xxx-xxx-1111-1111-1111--------------------|
A ]-----xxx--xxx--1--1111111111--xxx-xxx-1111-1111-1111--------------------|


x2
back to the chord progression of the intro

B ]-----------------------|
F#]-----------------------|
D ]-----------------------|
A ]-8-7-5-8-7-4-4-3-1-----|
E ]-5-5-5-4-4-4-1-1-1-----|
A ]-5-5-5-4-4-4-1-1-1-----|

last chord

B ]-------------------------|
F#]-------------------------|
D ]-------------------------|
A ]-0-----------------------|
E ]-0-----------------------|
A ]-0-----------------------|
Tap to rate this tab
 
# A B C D E F G H I J K L M N O P Q R S T U V W X Y Z