Song name
# A B C D E F G H I J K L M N O P Q R S T U V W X Y Z

Make Up Your Mind - Tuptedup tab

Highlighted       Show chord diagrams
-------------------------------------------------------------------------------

			     Tuptedup - Make Up Your Mind

-------------------------------------------------------------------------------

Tabbed by: maps.run

Email:	maps.run@gmail.com



Tuning: Standard (EADGBE)

Chorus:
C			      F
Tuptedup tedup Tuptedup tedup Tuptedupdupdup - OiOiOi
G			      C
Tuptedup tedup Tuptedup tedup Tuptedupdupdup - OiOiOi


Verse1:
	C		   F
When we shout loud Jesus name,

You can hear a noise,
    G
Of thunderstorms and mighty trumpets,
  E		   F		C
Resounding in your brain,
			F
All the other ones are lame,
			G
And will never feel the same,

When you shout them loud,
	E		  F
They'll go right down the drain.

Verse2:
C		   F
 These five single letters,
			  G
In which power remains forever,
			 E
Are one big mystery for mankind,
	   F		C
That will never ever come close,
			F
And find out what's behind it,
			G
Cause it's magic is so blinding,

Best kept secret, yeah,
      E                   F
It's there but you won't find it.


Solo:
 (C)		      (F)
E|-----------------------------------|
B|----5-5-5-----5-5-5--6-6-6-5-------|
G|5-5-------5-5----------------7-----|
D|-----------------------------------|
A|-----------------------------------|
E|-----------------------------------|
 (G)		       (C)
E|-----------------------------------|
B|----------------------5-5-5--------|
G|4-4-7-7-7--4-4-7-7-7--------7-5----|
D|-----------------------------------|
A|-----------------------------------|
E|-----------------------------------|


Bridge: 
A			F
 Call me Peter, call me James,
			C
It will never feel the same,
			E
Falls back to second place,
	  F		    A
No other name will fit the face,
		     F
Of the one and only Man,
			C
Who puts power in this band,
		     E
And we can call Him friend,
	     F			A
And we will praise Him till the end
			F
Call me Peter, call me James,
			C
It will never feel the same,
			E
Falls back to second place,
	  F		    A
No other name will fit the face,
		     F
Of the one and only Man,
			C
Who puts power in this band,
		     E
And we can call Him friend,
	     F			G
And we will praise Him till the end, yes we can



-Actually pretty easy, just listen closely for rhythm and changes.
-Comments, corrections and questions to maps.run@gmail.com
-Rock on!!!

www.makeupyourmind.nl
Tap to rate this tab
# A B C D E F G H I J K L M N O P Q R S T U V W X Y Z