Song name
# A B C D E F G H I J K L M N O P Q R S T U V W X Y Z

Make Your Stand - Better Off Dead tab

intro:
e|-----------------|
B|-5---5---5---5---|
G|---9---9---9---9-|
D|-----------------|
A|-----------------|
E|-----------------|

riff 1:
e|-------------------------------------------------------------------|
B|-------------------------------------------------------------------|
G|-------------------------------------------------------------------|
D|-5-5-5-5---8-8-8-8---3-3-3-3-3-3-3-3---5-5-5-5-5-5-5-5-5-5-5-5-5-5-|
A|-5-5-5-5---8-8-8-8---3-3-3-3-3-3-3-3---5-5-5-5-5-5-5-5-5-5-5-5-5-5-|
E|-3-3-3-3---6-6-6-6---1-1-1-1-1-1-1-1---3-3-3-3-3-3-3-3-3-3-3-3-3-3-|

riff 2:
e|---------------|
B|---------------|
G|---------------|
D|-5-5-5-5-5---8-|
A|-5-5-5-5-5---8-|
E|-3-3-3-3-3---6-|

riff 3:
e|-------------------------------------|
B|-------------------------------------|
G|-------------------------------------|
D|-5-5-5-5---8-8-8-8---3-3-3-3-3-3-3-3-|
A|-5-5-5-5---8-8-8-8---3-3-3-3-3-3-3-3-|
E|-3-3-3-3---6-6-6-6---1-1-1-1-1-1-1-1-|

Tap to rate this tab
# A B C D E F G H I J K L M N O P Q R S T U V W X Y Z