Song name
# A B C D E F G H I J K L M N O P Q R S T U V W X Y Z

Maker Punk Band - Gritos Del Corazon tab

hola, esta es mi primera tablatura,  esta cancion
es bien facil de aprender
lo unico que tienes que hacer es escuchar la musica para basarte
en los tiempos

afinacion= DROP C


guitarra 1

e -------------------------------------------------------|
b -------------------------------------------------------|
g -------------------------------------------------------|
d ---0-0-0----4-2-4-555-444---0-0---4-2-4-555-444--------|
a ---0-0-0--------------------0-0------------------------|
e ---0-0-0--------------------0-0------------------------|

guitarra 2

e -------------------------------------------------------|
b -------------------------------------------------------|
g -------------------------------------------------------|
d ---0-0-0--------------------0-0------------------------|
a ---0-0-0--------------------0-0------------------------|
e ---0-0-0--------------------0-0------------------------|

guitarra 1

e -------------------------------------------------------|
b -------------------------------------------------------|
g -------------------------------------------------------|
d ---0-0-0--------------------0-0------------------------|
a ---0-0-0---5-4-5-777-555----0-0---5-4-5-777-555--------|
e ---0-0-0--------------------0-0------------------------|

guitarra 2

e -------------------------------------------------------|
b -------------------------------------------------------|
g -------------------------------------------------------|
d ---0-0-0--------------------0-0------------------------|
a ---0-0-0--------------------0-0------------------------|
e ---0-0-0--------------------0-0------------------------|

esta parte lo puede dar cualquiera de las dos guitarras

e --------------------------------|
b --------------------------------|
g --777---------777---------------|
d ------777--0------777--0--------|
a -----------0-----------0--------|
e-----------0-----------0---------|

guitarra 1

e -------------------------------------------------------|
b -------------------------------------------------------|
g -------------------------------------------------------|
d ---0-0-0----4-2-4-555-444---0-0---4-2-4-555-444--------|
a ---0-0-0--------------------0-0------------------------|
e ---0-0-0--------------------0-0------------------------|

guitarra 2   sigue dando los mismos rasgeos

guitarra 1

e -------------------------------------------------------|
b -------------------------------------------------------|
g -------------------------------------------------------|
d ---0-0-0--7-5-7-999-777----0-0-0---7-5-7-999-777-------|
a ---0-0-0-------------------0-0-0-----------------------|
e ---0-0-0-------------------0-0-0-----------------------|

aqui empieza la cancion

ambas guitarras 1 y 2

dices  que  estas   bien, pero no  lo  estas
e -------------------------------------------------------|
b -------------------------------------------------------|
g -------------------------------------------------------|
d ---5-5-5---7-7-7---4-4-4------12-12-12--11-11-11-------|
a ---5-5-5---7-7-7---4-4-4---9---------------------------|
e ---5-5-5---7-7-7---4-4-4---9---------------------------|

pues  veo  en   tus   ojos   lagrimas   brotar

e -------------------------------------------------------|
b -------------------------------------------------------|
g -------------------------------------------------------|
d ---5-5-5---7-7-7---4-4-4--1212--1212-------------------|
a ---5-5-5---7-7-7---4-4-4---9-9---9-9-------------------|
e ---5-5-5---7-7-7---4-4-4---9-9---9-9-------------------|

lagrimas  de  amor  tardes  de   dolor...
e -----------------------------------------------------------|
b -----------------------------------------------------------|
g -----------------------------------------------------------|
d ---0-0--0-0----5-5--5-5----4-4--4-4----12-12-12--11-11-11--| x2
a ---0-0--0-0----5-5--5-5----4-4--4-4--9---------------------|
e ---0-0--0-0----5-5--5-5----4-4--4-4--9---------------------|


guitarra 1

e -------------------------------------------------------|
b -------------------------------------------------------|
g -------------------------------------------------------|
d ---0-0-0----4-2-4-555-444---0-0---4-2-4-555-444--------|
a ---0-0-0--------------------0-0------------------------|
e ---0-0-0--------------------0-0------------------------|

la segunda sigue dando los mismos rasgueos

guitarra 1
e -------------------------------------------------------|
b -------------------------------------------------------|
g -------------------------------------------------------|
d ---0-0-0--7-5-7-999-777----0-0-0---7-5-7-999-777-------|
a ---0-0-0-------------------0-0-0-----------------------|
e ---0-0-0-------------------0-0-0-----------------------|

[coro]
esta parte es en clean

escucha   mi  corazon ,  gritos  de dolor
e -------------------------------------------------------|
b -------------------------------------------------------|
g --77777---------77777----------------------------------|
d --77777--77777--77777-77777----------------------------|
a --55555--77777--55555-77777----------------------------|
e ---------55555--------55555----------------------------|

ahora la segunda guitarra hace esto en distor

escucha   mi   corazon   gritos   de dolor
e -------------------------------------------------------|
b -------------------------------------------------------|
g -------------------------------------------------------|
d --00000---55555---00000---55555------------------------|
a --00000---55555---00000---55555------------------------|
e --00000---55555---00000---55555------------------------|

mientras la segunda guitarra da el rasgueo con distor  la primera
hace estos punteos

e -------------------------------------------------------|
b --7-5-7-8-7-5-7-5-7-8-7-5------------------------------|
g -------------------------------------------------------|
d -------------------------------------------------------| x 4
a -------------------------------------------------------|
e -------------------------------------------------------|

ahora esto lo hacen las dos guitarras siguendo la cancion

   escu  cha  me , son gritos del corazon
e -------------------------------------------------------|
b -------------------------------------------------------|
g -------------------------------------------------------|
d --999--777--555-----222-777-000------------------------|
a --999--777--555-----222-777-000------------------------|
e --999--777--555-----222-777-000------------------------|

guitarra 1

e -------------------------------------------------------|
b -------------------------------------------------------|
g -------------------------------------------------------|
d ---0-0-0----4-2-4-555-444---0-0---4-2-4-555-444--------|
a ---0-0-0--------------------0-0------------------------|
e ---0-0-0--------------------0-0------------------------|

la segunda guitarra acompaña a la primera guitarra con rasgueos

e -------------------------------------------------------|
b -------------------------------------------------------|
g -------------------------------------------------------|
d ---0-0-0--------------------0-0------------------------|
a ---0-0-0--------------------0-0------------------------|
e ---0-0-0--------------------0-0------------------------|

guitarra 1

e -------------------------------------------------------|
b -------------------------------------------------------|
g -------------------------------------------------------|
d ---0-0-0--7-5-7-999-777----0-0-0---7-5-7-999-777-------|
a ---0-0-0-------------------0-0-0-----------------------|
e ---0-0-0-------------------0-0-0-----------------------|

aqui ambas guitarras

siento  este  dolor  que  ahogandome   esta
e -------------------------------------------------------|
b -------------------------------------------------------|
g -------------------------------------------------------|
d ---5-5-5---7-7-7---4-4-4------12-12-12--11-11-11-------|
a ---5-5-5---7-7-7---4-4-4---9---------------------------|
e ---5-5-5---7-7-7---4-4-4---9---------------------------|

no  siento  tu  amor  que  me  haga  respirar
e -------------------------------------------------------|
b -------------------------------------------------------|
g -------------------------------------------------------|
d ---5-5-5---7-7-7---4-4-4--1212--1212-------------------|
a ---5-5-5---7-7-7---4-4-4---9-9---9-9-------------------|
e ---5-5-5---7-7-7---4-4-4---9-9---9-9-------------------|


lagrimas  de  amor  tardes  de  dolor...
e -----------------------------------------------------------|
b -----------------------------------------------------------|
g -----------------------------------------------------------|
d ---0-0--0-0----5-5--5-5----4-4--4-4----12-12-12--11-11-11--| x2
a ---0-0--0-0----5-5--5-5----4-4--4-4--9---------------------|
e ---0-0--0-0----5-5--5-5----4-4--4-4--9---------------------|

guitarra 1

e -------------------------------------------------------|
b -------------------------------------------------------|
g -------------------------------------------------------|
d ---0-0-0----4-2-4-555-444---0-0---4-2-4-555-444--------|
a ---0-0-0--------------------0-0------------------------|
e ---0-0-0--------------------0-0------------------------|

la segunda guitarra acompaña a la primera guitarra con rasgueos

e -------------------------------------------------------|
b -------------------------------------------------------|
g -------------------------------------------------------|
d ---0-0-0--------------------0-0------------------------|
a ---0-0-0--------------------0-0------------------------|
e ---0-0-0--------------------0-0------------------------|

guitarra 1

e -------------------------------------------------------|
b -------------------------------------------------------|
g -------------------------------------------------------|
d ---0-0-0--7-5-7-999-777----0-0-0---7-5-7-999-777-------|
a ---0-0-0-------------------0-0-0-----------------------|
e ---0-0-0-------------------0-0-0-----------------------|

[coro] x 2
con clean

escucha   mi  corazon ,  grito  de dolor
e -------------------------------------------------------|
b -------------------------------------------------------|
g --77777---------77777----------------------------------|
d --77777--77777--77777-77777----------------------------|
a --55555--77777--55555-77777----------------------------|
e ---------55555--------55555----------------------------|

con distor

escucha   mi   corazon   gritos   de dolor
e -------------------------------------------------------|
b -------------------------------------------------------|
g -------------------------------------------------------|
d --00000---55555---00000---55555------------------------|
a --00000---55555---00000---55555------------------------|
e --00000---55555---00000---55555------------------------|

los punteos lo da la primera guitarra

e -------------------------------------------------------|
b --7-5-7-8-7-5-7-5-7-8-7-5------------------------------|
g -------------------------------------------------------|
d -------------------------------------------------------| x 4
a -------------------------------------------------------|
e -------------------------------------------------------|
ahora el solo esta demasiado facil bueno para mi
solo hay que ponerle mucha practica

e ----------------------------------------------------777-101010/12-|
b -7-5-7-8-7-5-7-5-7-8-7-5------------------777-101010--------------|
g ----------------------------------777-999-------------------------|
d ---------------------------777-999--------------------------------|
a ------------------------------------------------------------------|
e ------------------------------------------------------------------|

e --10--------------10----12--14--12—10h12p---10--12--14--12—10h12p-|
b -----12-10-12---10---10---10--10--10------10--10--10--10--10------|
g ------------------------------------------------------------------|
d ------------------------------------------------------------------|
a ------------------------------------------------------------------|
e ------------------------------------------------------------------|

e --1010-99----------------------------------------------------|
b ----------1010-77--------------10B-10B-----------------------|
g ------------------9-9B--11-11-11-----------------------------|
d -------------------------------------------------------------|
a -------------------------------------------------------------|
e -------------------------------------------------------------|

aqui ambas guitarra

escucha mi corazon, gritos del corazon...
e -------------------------------------------------------|
b -------------------------------------------------------|
g -------------------------------------------------------|
d -------0---------5-------------------------------------|x4
a -------0---------5-------------------------------------|
e ---000-0-----555-5-------------------------------------|

   escu cha me, son gritos del corazon
e -------------------------------------------------------|
b -------------------------------------------------------|
g -------------------------------------------------------|
d --999--777--555-----222-777-999-777--------------------|
a --999--777--555-----222-777-999-777--------------------|
e --999--777--555-----222-777-999-777--------------------|

son gritos del corazon...
e -------------------------------------------------------|
b -------------------------------------------------------|
g -------------------------------------------------------|
d ---555--777--999--777----------------------------------| x 2
a ---555--777--999--777----------------------------------|
e ---555--777--999--777----------------------------------|

y termina con esto

son gritos del corazon
e -------------------------------------------------------|
b -------------------------------------------------------|
g -------------------------------------------------------|
d ---5--7--0---------------------------------------------|
a ---5--7--0---------------------------------------------|
e ---5--7--0---------------------------------------------|

eso es todo

que Dios los bendiga

para cualquier duda les dejo mi msn es  konvixion_punk12@hotmail.com
Tap to rate this tab
 
# A B C D E F G H I J K L M N O P Q R S T U V W X Y Z