Song name
# A B C D E F G H I J K L M N O P Q R S T U V W X Y Z

Making April - Runaway World Acoustic tab

-------------------------------------------------------------------------------
                   Runaway World (Acoustic) - Making April
-------------------------------------------------------------------------------
Tabbed by: Johnny42
Email: clever-ruse@hotmail.com

Tuning: Standard (Capo 2)

Really under-appreciated song from Making April. played with the Capo on 2. Should be 
accurate. There's some lead tabbed out for the interlude and the exact order of the song 
below the tab...

(Verse/Intro)

"I've heard all the talk, yeah this road's no good for you..."

e|---3----------3---|
B|---3----------3---|
G|---0----------0---|
D|---0----------x---|
A|---x----------3---|
E|---3----------x---|

(Chorus)

"And she's breaking through this, the wall's on fire..."

e|---3-----3-----3-----3---|
B|---3-----3-----3-----3---|
G|---0-----0-----0-----2---|
D|---x-----x-----0-----0---|
A|---2-----3-----x-----0---|
E|---x-----x-----3-----2---|

(Chorus Part Two)

"Have you been rendered breathless..."

e|---3-----3-----2-----2---|
B|---3-----3-----3-----3---|
G|---0-----0-----2-----2---|
D|---x-----x-----0-----0---|
A|---2-----3-----0-----0---|
E|---x-----x-----x-----x---|

(Bridge)

"We can catch this by the tail in time..."

e|---3-----3-----3-----3---|
B|---3-----3-----3-----3---|
G|---0-----0-----0-----2---|
D|---x-----x-----0-----0---|
A|---2-----3-----x-----0---|
E|---x-----x-----3-----2---|

(Bridge Part 2)

"As the ship sets sail..."

e|---3-----3-----2---|
B|---3-----3-----3---|
G|---0-----0-----2---|
D|---x-----x-----0---|
A|---2-----3-----0---|
E|---x-----x-----x---|

(Interlude)

e|---3----------3---|
B|---3----------3---|
G|---0----------0---|
D|---0----------x---|
A|---x----------3---|
E|---3----------x---|

(Interlude) (For a second guitar WITHOUT Capo)


e|------12-10-9----9---10---|
B|---10---------10---10-----|
G|--------------------------|
D|--------------------------|
A|--------------------------|
E|--------------------------|

(Outro)

"My Runaway..."

e|---3---3---3---3---|
B|---3---3---3---3---|
G|---0---0---0---2---|
D|---0---x---0---0---|
A|---x---3---x---0---|
E|---3---x---3---2---|

(Outro Part 2)

"My runaway, my runaway..."

e|---3---3---3---2---3---|
B|---3---3---3---3---3---|
G|---0---0---0---2---0---|
D|---0---x---0---0---0---|
A|---x---3---x---0---x---|
E|---3---x---3---x---3---|


INTRO      x2
VERSE      x2
CHORUS     x1
CHORUS TWO x1
INTRO      x1
VERSE      x2
CHORUS     x1
CHORUS TWO x1
BRIDGE     x1
BRIDGE TWO x1
BRIDGE     x1
BRIDGE TWO x1
INTERLUDE  x2
CHORUS     x1
CHORUS TWO x1
OUTRO      x1
OUTRO TWO  x1

| /  slide up
| \  slide down
| h  hammer-on
| p  pull-off
| ~  vibrato
| +  harmonic
| x  Mute note
===============================================================================
Tap to rate this tab
# A B C D E F G H I J K L M N O P Q R S T U V W X Y Z