Song name
# A B C D E F G H I J K L M N O P Q R S T U V W X Y Z

Malachai - Snowflake tab

I'm sure, like many of you, I struggled to play the full solo for snowflake so I put 
together this much shorter and easier solo that anyone can play. Enjoy!!! :)


Intro and first part of song:
 |-------------------------------------------------------|
 |-------------------------------------------------------|
 |-------------7-7-7-7-----------------9-9--------x-x-x--|
 |-9-9-9-9-----7-7-7-7-----7-7-7-7-----9-9--9-9---x-x-x--|
 |-9-9-9-9-----5-5-5-5-----7-7-7-7-----7-7--9-9---x-x-x--|
 |-7-7-7-7-----------------5-5-5-5----------7-7---x-x-x--|

Much easier version of solo:
 |-12--10-----------12-10-----------------------------------------10-10-12-|
 |---------12--10---------12-10------10-----10--------------10-12----------|
 |-------------------------------12------12----12-9-9--9-12----------------|
 |-------------------------------------------------------------------------|
 |-------------------------------------------------------------------------|
 |-------------------------------------------------------------------------|

 |-12--10-----------12-10-------------------------10-12-|
 |---------12--10---------12-10------10-----10----------|
 |-------------------------------12------12----12-------|
 |------------------------------------------------------|
 |------------------------------------------------------|
 |------------------------------------------------------|

Final part of song and ending:
 |-------------------------------------------------------|
 |-------------------------------------------------------|
 |-------------7-7-7-7-----------------9-9--------x-x-x--|
 |-9-9-9-9-----7-7-7-7-----7-7-7-7-----9-9--9-9---x-x-x--|
 |-9-9-9-9-----5-5-5-5-----7-7-7-7-----7-7--9-9---x-x-x--|
 |-7-7-7-7-----------------5-5-5-5----------7-7---x-x-x--|
Tap to rate this tab
 
# A B C D E F G H I J K L M N O P Q R S T U V W X Y Z