Song name
# A B C D E F G H I J K L M N O P Q R S T U V W X Y Z

Maladjusted - Maladjusted tab

Help us improve GuitareTab! Take a short survey!
----------------------------------------------------------------------
                       Maladjusted - Maladjusted
----------------------------------------------------------------------

   Main riff:

e| --------------------------------------------------|
b| --------------------------------------------------|
g| --------------------------------------------------|
d| 0-0-0-5-0--0-0-0-5-5-6-----0-0-0-5-0--0-0-0-5-5-6-|
a| 0-0-0-5-0--0-0-0-5-5-6-----0-0-0-5-0--0-0-0-5-5-6-|
d| 0-0-0-5-0--0-0-0-5-5-6-----0-0-0-5-0--0-0-0-5-5-6-|

   Riff 2a:

e| -------------------------------------|
b| -------------------------------------|
g| -------------------------------------|
d| -x-x-1-x-x-1-x-4-----x-x-1-x-x-1-x-4-|
a| -x-x-1-x-x-1-x-4-----x-x-1-x-x-1-x-4-|
d| -x-x-1-x-x-1-x-4-----x-x-1-x-x-1-x-4-|


  Riff 2b:

e|-----------------------------------------------------------|
b|-----------------------------------------------------------|
g|-----------------------------------------------------------|
d|-1---9-8-7------2---9-8-7------3---9-8-7-------7-7-7-7-777-|
a|-1---9-8-7------2---9-8-7------3---9-8-7-------7-7-7-7-777-|
d|-1---9-8-7------2---9-8-7------3---9-8-7-------7-7-7-7-777-|

  Verse, 
GTR 1:

e|------------------------------|
b|------------------------------|
g|------------------------------|
d|-----5-------------5----------|
a|---7-------------7------------|
e|-0-----5--6----0-----5--6-5-6-|

GTR2 w/ wah wah pedal:

e|-0~~~~~~~~~~~~~0~~~~~~~~~~~~~~|
b|-0~~~~~~~~~~~~~0~~~~~~~~~~~~~~|
g|-0~~~~~~~~~~~~~0~~~~~~~~~~~~~~|
d|-2~~~~~~~~~~~~~2~~~~~~~~~~~~~~|
A|-2~~~~~~~~~~~~~2~~~~~~~~~~~~~~|
e|-0~~~~~~~~~~~~~0~~~~~~~~~~~~~~|


1st: Main riff X1.
2nd: riff 2a X2.
3rd: Riff 2b X2.
4th: Main riff X1.
5th: verse X4.
6th: main riff.
7th: verse X4.
8th: Main riff.
9th: repeate 2nd - 4th.
Related for Maladjusted tab