Song name
# A B C D E F G H I J K L M N O P Q R S T U V W X Y Z

Malajube - Luna chords

Highlighted       Show chord diagrams
=====================================================
                  Malajube - Luna 
                 Labyrinthes | 2009


Piano Intro*

(0:00-0:03)
        EM
e|-----------------------|
b|-----0----0----0-------|
g|----0----0----0--------|
d|---2----2----2---0~~---|
a|--2----2----2----------|
E|-0----0----0-----------|


(0:04)  (0:11) (0:17)  (0:19)  (0:26

   G      BM     D       G      BM
e|-3------7------10------3------7------|
b|-3------7------10------3------7------|
g|-4------7------11------4------7------|
d|-5------9------12------5------9------|
a|-5------9------12------5------9------|
E|-3------7------10------3------7------|


 (0:33) (0:37) (0:40) (0:48) (0:50) (0:51) (0:53)
   AM     C      B    Em/B     BM     AM     EM
e|-5------8------7------7------7------5------0------|
b|-5------8------7------8------7------5------0------|
g|-5------9------8------9------7------5------0------|
d|-7------10-----9------9------9------7------2------|
a|-7------10-----9------7------9------7------2------|
E|-5------8------7------7------7------5------0------|



G        BM             D
Luna, tu veux voir la lumiere

G                               BM
Luna, le soleil ne brille pas pour toi

AM                     C      B
Je peux le faire pour toi, Luna

Em/B     BM      AM      EM
Pa       pa da   pa da   pa da


Em/B     BM      AM      EM
Pa       pa da   pa da   pa da

Tap to rate this tab
 
# A B C D E F G H I J K L M N O P Q R S T U V W X Y Z