Guitaretab - guitar tabs
Song name
# A B C D E F G H I J K L M N O P Q R S T U V W X Y Z

Malajube - Pate Filo tab

------------------------------------------------------------------------
			 Pate Filo - Malajube
------------------------------------------------------------------------

                       >>  www.malajube.com  <<


Tabbed by: Julian
Email: julianprott@web.de

Tuning: Standard

0:13  0:25
e|----------------------------------------------------------------------|
B|----------------------------------------------------------------------|
G|-11-x-11----11-x-11-x-11--9---7--11----12-x-12----12-x-6-x-6-4--2-6---|
D|--x-x--x-----x-x--x-x--x--x---x---x-----x-x--x-----x-x-x-x-x-x--x-x---| x2
A|--9-x--9-----9-x--9-x--9--7---5---9----10-x-10----10-x-4-x-4-2--0-4---|
E|----------------------------------------------------------------------|

0:26  0:39
Guitar1
e|--------5-5-------5-5---------0-0-------0-0---------------------------|
B|--------7-7-------7-7---------2-2-------2-2---------------------------|
G|----7---7-7--7-7--7-7---------2-2-------2-2---------------------------|
D|----7---7-7--7-7--7-7-----2---2-2--2-2--2-2---------------------------|
A|----5--------5-5----------2---0-0--2-2--0-0---------------------------|
E|--------------------------0--------0-0--------------------------------|
                                                                          x2
Guitar2                                                                   
e|----------------------------------------------------------------------|
B|----------------------------------------------------------------------|
G|-4/11-----------------16\12-------------------------------------------|
D|----------------------------------------------------------------------|
A|----------------------------------------------------------------------|
E|----------------------------------------------------------------------|

0:40  0:52
e|----------------------------------------------------------------------|
B|----------------------------------------------------------------------|
G|-11-11-11-11-11-11-11-11-12-12-12-12-12-12-12-12----------------------|
D|--x--x--x--x--x--x--x--x--x--x--x--x--x--x--x--x----------------------|
A|--9--9--9--9--9--9--9--9-10-10-10-10-10-10-10-10----------------------|
E|----------------------------------------------------------------------|

e|-------------------------7-7-7-7-5-5-5-5------------------------------|
B|-------------------------7-7-7-7-5-5-5-5------------------------------|
G|-14-14-14-14-14-14-14-14-7-7-7-7-6-6-6-6------------------------------|
D|--x--x--x--x--x--x--x--x-9-9-9-9-7-7-7-7------------------------------|
A|-12-12-12-12-12-12-12-12-9-9-9-9-7-7-7-7------------------------------|
E|-------------------------7-7-7-7-5-5-5-5------------------------------|

0:53  1:04
e|-0-0-0-0-0-0-0-0-0-0-0-0-0-0-0-0-0-0-0-0-0-0-0-0-0-0-0-0-0-0-0-0------|
B|-0-0-0-0-0-0-0-0-2-2-2-2-2-2-2-2-0-0-0-0-0-0-0-0-2-2-2-2-2-2-2-2------|
G|-0-0-0-0-0-0-0-0-2-2-2-2-2-2-2-2-0-0-0-0-0-0-0-0-2-2-2-2-2-2-2-2------|
D|-2-2-2-2-2-2-2-2-2-2-2-2-2-2-2-2-2-2-2-2-2-2-2-2-2-2-2-2-2-2-2-2------|
A|-2-2-2-2-2-2-2-2-0-0-0-0-0-0-0-0-2-2-2-2-2-2-2-2-0-0-0-0-0-0-0-0------|
E|-0-0-0-0-0-0-0-0-----------------0-0-0-0-0-0-0-0----------------------|

1:05  1:18
e|----------------------------------------------------------------------|
B|----------------------------------------------------------------------|
G|-11-11-11-11-11-11-11-11-12-12-12-12-12-12-12-12----------------------|
D|--x--x--x--x--x--x--x--x--x--x--x--x--x--x--x--x----------------------|
A|--9--9--9--9--9--9--9--9-10-10-10-10-10-10-10-10----------------------|
E|----------------------------------------------------------------------|

e|-------------------------7-7-7-7-5-5-5-5------------------------------|
B|-------------------------7-7-7-7-5-5-5-5------------------------------|
G|-14-14-14-14-14-14-14-14-7-7-7-7-6-6-6-6------------------------------|
D|--x--x--x--x--x--x--x--x-9-9-9-9-7-7-7-7------------------------------|
A|-12-12-12-12-12-12-12-12-9-9-9-9-7-7-7-7------------------------------|
E|-------------------------7-7-7-7-5-5-5-5------------------------------|

1:19  1:31
e|-0-0-0-0-0-0-0-0-0-0-0-0-0-0-0-0-0-0-0-0-0-0-0-0-0-0-0-0-0-0-0-0------|
B|-0-0-0-0-0-0-0-0-2-2-2-2-2-2-2-2-0-0-0-0-0-0-0-0-2-2-2-2-2-2-2-2------|
G|-0-0-0-0-0-0-0-0-2-2-2-2-2-2-2-2-0-0-0-0-0-0-0-0-2-2-2-2-2-2-2-2------|
D|-2-2-2-2-2-2-2-2-2-2-2-2-2-2-2-2-2-2-2-2-2-2-2-2-2-2-2-2-2-2-2-2------|
A|-2-2-2-2-2-2-2-2-0-0-0-0-0-0-0-0-2-2-2-2-2-2-2-2-0-0-0-0-0-0-0-0------|
E|-0-0-0-0-0-0-0-0-----------------0-0-0-0-0-0-0-0----------------------|
[ Tab from: http://www.guitaretab.com/m/malajube/90055.html ]
1:32  1:44
Guitar1
e|--------5-5-------5-5---------0-0-------0-0---------------------------|
B|--------7-7-------7-7---------2-2-------2-2---------------------------|
G|----7---7-7--7-7--7-7---------2-2-------2-2---------------------------|
D|----7---7-7--7-7--7-7-----2---2-2--2-2--2-2---------------------------|
A|----5--------5-5----------2---0-0--2-2--0-0---------------------------|
E|--------------------------0--------0-0--------------------------------|
                                                                          x2
Guitar2
e|----------------------------------------------------------------------|
B|----------------------------------------------------------------------|
G|-4/11-----------------16\12-------------------------------------------|
D|----------------------------------------------------------------------|
A|----------------------------------------------------------------------|
E|----------------------------------------------------------------------|

1:45  1:57
e|----------------------------------------------------------------------|
B|----------------------------------------------------------------------|
G|-11-11-11-11-11-11-11-11-12-12-12-12-12-12-12-12----------------------|
D|--x--x--x--x--x--x--x--x--x--x--x--x--x--x--x--x----------------------|
A|--9--9--9--9--9--9--9--9-10-10-10-10-10-10-10-10----------------------|
E|----------------------------------------------------------------------|

e|-------------------------7-7-7-7-5-5-5-5------------------------------|
B|-------------------------7-7-7-7-5-5-5-5------------------------------|
G|-14-14-14-14-14-14-14-14-7-7-7-7-6-6-6-6------------------------------|
D|--x--x--x--x--x--x--x--x-9-9-9-9-7-7-7-7------------------------------|
A|-12-12-12-12-12-12-12-12-9-9-9-9-7-7-7-7------------------------------|
E|-------------------------7-7-7-7-5-5-5-5------------------------------|

1:58  2:10
e|-0-0-0-0-0-0-0-0-0-0-0-0-0-0-0-0-0-0-0-0-0-0-0-0-0-0-0-0-0-0-0-0------|
B|-0-0-0-0-0-0-0-0-2-2-2-2-2-2-2-2-0-0-0-0-0-0-0-0-2-2-2-2-2-2-2-2------|
G|-0-0-0-0-0-0-0-0-2-2-2-2-2-2-2-2-0-0-0-0-0-0-0-0-2-2-2-2-2-2-2-2------|
D|-2-2-2-2-2-2-2-2-2-2-2-2-2-2-2-2-2-2-2-2-2-2-2-2-2-2-2-2-2-2-2-2------|
A|-2-2-2-2-2-2-2-2-0-0-0-0-0-0-0-0-2-2-2-2-2-2-2-2-0-0-0-0-0-0-0-0------|
E|-0-0-0-0-0-0-0-0-----------------0-0-0-0-0-0-0-0----------------------|

2:11  2:23
e|----------------------------------------------------------------------|
B|----------------------------------------------------------------------|
G|-11-11-11-11-11-11-11-11-12-12-12-12-12-12-12-12----------------------|
D|--x--x--x--x--x--x--x--x--x--x--x--x--x--x--x--x----------------------|
A|--9--9--9--9--9--9--9--9-10-10-10-10-10-10-10-10----------------------|
E|----------------------------------------------------------------------|

e|-------------------------7-7-7-7-5-5-5-5------------------------------|
B|-------------------------7-7-7-7-5-5-5-5------------------------------|
G|-14-14-14-14-14-14-14-14-7-7-7-7-6-6-6-6------------------------------|
D|--x--x--x--x--x--x--x--x-9-9-9-9-7-7-7-7------------------------------|
A|-12-12-12-12-12-12-12-12-9-9-9-9-7-7-7-7------------------------------|
E|-------------------------7-7-7-7-5-5-5-5------------------------------|

2:24  2:36
e|-0-0-0-0-0-0-0-0-0-0-0-0-0-0-0-0-0-0-0-0-0-0-0-0-0-0-0-0-0-0-0-0------|
B|-0-0-0-0-0-0-0-0-2-2-2-2-2-2-2-2-0-0-0-0-0-0-0-0-2-2-2-2-2-2-2-2------|
G|-0-0-0-0-0-0-0-0-2-2-2-2-2-2-2-2-0-0-0-0-0-0-0-0-2-2-2-2-2-2-2-2------|
D|-2-2-2-2-2-2-2-2-2-2-2-2-2-2-2-2-2-2-2-2-2-2-2-2-2-2-2-2-2-2-2-2------|
A|-2-2-2-2-2-2-2-2-0-0-0-0-0-0-0-0-2-2-2-2-2-2-2-2-0-0-0-0-0-0-0-0------|
E|-0-0-0-0-0-0-0-0-----------------0-0-0-0-0-0-0-0----------------------|

2:37  2:50
e|----------------------------------------------------------------------|
B|----------------------------------------------------------------------|
G|-11-x-11----11-x-11-x-11--9---7--11----12-x-12----12-x-6-x-6-4--2-6---|
D|--x-x--x-----x-x--x-x--x--x---x---x-----x-x--x-----x-x-x-x-x-x--x-x---| x2
A|--9-x--9-----9-x--9-x--9--7---5---9----10-x-10----10-x-4-x-4-2--0-4---|
E|----------------------------------------------------------------------|

2:51  3:29
Guitar1
e|--------5-5-------5-5---------0-0-------0-0---------------------------|
B|--------7-7-------7-7---------2-2-------2-2---------------------------|
G|----7---7-7--7-7--7-7---------2-2-------2-2---------------------------|
D|----7---7-7--7-7--7-7-----2---2-2--2-2--2-2---------------------------|
A|----5--------5-5----------2---0-0--2-2--0-0---------------------------|
E|--------------------------0--------0-0--------------------------------|
                                                                          x6
Guitar2                                                                   
e|----------------------------------------------------------------------|
B|----------------------------------------------------------------------|
G|-4/11-----------------16\12-------------------------------------------|
D|----------------------------------------------------------------------|
A|----------------------------------------------------------------------|
E|----------------------------------------------------------------------|

3:30  3:44
e|----------------------------------------------------------------------|
B|----------------------------------------------------------------------|
G|-11----12----14----16----18----11-x-11\-------------------------------|
D|--x-----x-----x-----x-----x-----x-x--x--slide down--------------------|
A|--9----10----12----14----16-----9-x--9\-------------------------------|
E|----------------------------------------------------------------------|


| /  slide up
| \  slide down
| h  hammer-on
| p  pull-off
| ~  vibrato
| +  harmonic
| x  Mute note
=========================================================================
Related for Pate Filo tab