Song name
# A B C D E F G H I J K L M N O P Q R S T U V W X Y Z

Malcolm Middleton - Speed On The M9 tab

by:joe walker
aritst:malcolm middleton
song:speed on the m9
album:5:14 etc........
28/10/05


     i'm so lonely .........(c,g,f,g)
e-----------------------------------------------------------------------|
b----1---------------1-------------1---------1--------------------------|
g----0---------------0-------------2---------0--------------------------|
d----2-----------------------------3------------------------------------|
a----3---------------2-----------------------2--------------------------|
E--------------------3-----------------------3--------------------------|


  check my eyes...............speed on the m9

     (am, em, am,                  dm)
e----(0)----(0)--------0-----------1---------------------------------|
b-----1-----(0)--------1-----------3---------------------------------|
g-----2----------------2-----------2---------------------------------|
d-----2------2---------2-----------0---------------------------------|
a-----0------2---------0---------------------------------------------|
E-----------(0)------------------------------------------------------|

(piano riff/lead)

e----------------------------------------------------------------------|
b---------------0--------------1---------------1-----------------------|
g------------2---------------0-------------2---------------------------|
d---------2---------------2------------3-------------------------------|
a------0---------------------------------------------------------------|
E---------------------(0)----------------------------------------------|

i think............... ^ that (0) might be an open A instead of an open E

risen and lather and repeat when need
Tap to rate this tab
# A B C D E F G H I J K L M N O P Q R S T U V W X Y Z