Song name
# A B C D E F G H I J K L M N O P Q R S T U V W X Y Z

Malcolm Middleton - Cold Winter tab

----------------------------------------------------------------------------
			     COLD WINTER - Malcolm Middleton
----------------------------------------------------------------------------
Tabbed by: Gregor
Email: chumpcheese@hotmail.com

Tuning: standard, capo 2nd


verse:
e|-----------------------------------------||
B|------------3--------3--------------0----||
G|--0---0--------0-----2-2-0-4-2--0-2---2-0||
D|-2---2--0--2--2-2----0-------------------||
A|----2-----3--3---3-0-0-------------------||
E|0----------------------------------------||    hold D(sus4) before chorus




Chorus:  

Em   /   Cadd9   /   G   /   D
Em   /   Cadd9   /   D   /   Cadd9  D         repeat






| /  slide up
| \  slide down
| h  hammer-on
| p  pull-off
| ~  vibrato
| +  harmonic
| x  Mute note
============================================================================
Tap to rate this tab
# A B C D E F G H I J K L M N O P Q R S T U V W X Y Z