Song name
# A B C D E F G H I J K L M N O P Q R S T U V W X Y Z

Malcolmondo - Swift Hands tab

INTRO RIFF
------------------------------------------|
------------------------------------------|
3-------3----------0-------0--------------|
--2-------2----------2-------2------------|
----1-------1----------3-------3----------|
----0-------0----------1-------1----------|
X3
CHORUS RIFF (PLAYED WITH NO LYRICS AT FIRST)
--------------------------------------------------|
--------------------------3---2 ---2--------------|
2------2------0-----------------------------------|
---1------0-------2-----------0-----0-------------|
------0-------1------0-----------2-------2--------|
- -----0------0------1-----------0-------0--------|
(AFTER SECOND TIME PLAY MAIN RIFF AGAIN)
MAIN RIFF
------------------------------------------|
------------------------------------------|
3-------3----------0-------0--------------|
--2-------2----------2-------2------------|
----1-------1----------3-------3----------|
----0-------0----------1-------1----------|
BACK TO CHORUS (WITH LYRICS)
(AFTER SECOND TIME END)
Tap to rate this tab
# A B C D E F G H I J K L M N O P Q R S T U V W X Y Z