Song name
# A B C D E F G H I J K L M N O P Q R S T U V W X Y Z

Maldita - Porque tab

Porque by Maldita

tabbed by ferdz tobats
email(fb): tobatsdrive@yahoo.com
contact no.: 09078968043


for more info, comments, suggestion email lang ho kau... palike na rin ng page ko sa fb 
"banat mode"


capo 2

intro:
      D                                   G
e|----0h2--0-------0--2-----2--0-----|--0-----2-----2----------------|
B|------------3-------3--T--3--3-3---|--3--T--3--T--3-----3--0-------|
G|--2-----------2--------A-----------|-----A-----A------0------------|
D|-----------------0-----P--0--------|-----P-----P-------------------|
A|-----------------------------------|-------------------------------|
E|-----------------------------------|--3-----------3-3--------------|
      Em                A
e|-------------0--------0---0--------|
B|----------3---3-------3-T-3--------|
G|--------0------0--------A----------|
D|------2----------2------P----------|
A|-------------------0--0---0--------|
E|--0--------------------------------|
      D                                  G
e|----0h2--0-------0--2-----2--0-----|--0-----2-----2---2-3s5--------|
B|------------3-------3--T--3--3-3---|--3--T--3--T--3----------------|
G|--2-----------2--------A-----------|-----A-----A-------------------|
D|-----------------0-----P--0--------|-----P-----P-------------------|
A|-----------------------------------|-------------------------------|
E|-----------------------------------|--3-----------3-3--------------|
     Em              A
e|-----------0--------------5--------|
B|---------3---3----------3----------|
G|--------0------0-------------------|
D|------2----------2---2-------------|
A|-------------------0---------------|
E|--0--------------------------------|


verse 1:

e|----0-----0-------2-----2-------0-----0--------0-----0--------|
B|----3-T---3-T-----3-T---3-T-----3-T---3-T------3-T---3-T------|
G|------A-----A-------A-----A-------A-----A--------A-----A------|
D|--0-0-P-0-0-P-0-----P-----P-------P-----P--------P-----P------|
A|---------------------------------------------0-0---0-0---0----|
E|----------------3-3---3-3---3-0-0---0-0----0------------------|

e|----0-----0-------2-----2-------0-----0--------0-------------|
B|----3-T---3-T-----3-T---3-T-----3-T---3-T------3-T-----------|
G|------A-----A-------A-----A-------A-----A--------A----1-1----|
D|--0-0-P-0-0-P-0-----P-----P-------P-----P--------P-----------|
A|---------------------------------------------0-0---0--1-1----|
E|----------------3-3---3-3---3-0-0---0-0----0-----------------|

pre-chorus:
e|------------------0-----0-------2-----2--------2-----2-------|
B|----3-T---3-T-----3-T---3-T-----3-T---3-T------3-T---3-T-----|
G|----2-A---2-A-------a-----A-------A-----A--------A-----A-----|
D|------P-----P-------P-----P-------P-----P--------P-----P-----|
A|--2-2---2-2---2-0-0---0-0---0--------------------------------|
E|------------------------------3-3---3-3---3--3-3---3-3---3---|


e|----0-----0-------0-----0-------2-----2------2-----------|
B|----3-T---3-T-----3-T---3-T-----3-T---3-T------3---------|
G|------A-----A-----2-A---2-A-------A-----A--------0-------|
D|------P-----P-------P-----P-------P-----P----------0-----|
A|---------------------------------------------------------|
E|--0-0---0-0---0-2-2---2-2---2-3-3---3-3---3-3------------|


chorus: 4x
e|----0-----0--------0-----0-------0-----0-------2-----2------|
B|----2-T---2-T------3-T---3-T-----3-T---3-T-----3-T---3-T----|
G|------A-----A--------A-----A-----2-A---2-A-------A-----A----|
D|--0-0-P-0-0-P-0------P-----P-------P-----P-------P-----P----|
A|------------------------------------------------------------|
E|-----------------0-0---0-0---0-2-2---2-2---2-3-3---3-3---3--|

sa pang-apat na ulit bagsak nalang ung G

e|---2-----|
B|---3-----|
G|---0-----|
D|---0-----|
A|---0-----|
E|---3-----|


interlude:

e|--0-2-2-0-----0-2-2----2-3s5----------0-------------5-|
B|----------3-------------------------3---3---------5---|
G|----------------------------------0-------0-----------|
D|--0---0-----0-------------------2-----------2---2-----|
A|----------------------------------------------0-------|
E|--------------3---3-3---------0-----------------------|

verse 2:

e|----0-----0-------2-----2-------0-----0--------0-----0--------|
B|----3-T---3-T-----3-T---3-T-----3-T---3-T------3-T---3-T------|
G|------A-----A-------A-----A-------A-----A--------A-----A------|
D|--0-0-P-0-0-P-0-----P-----P-------P-----P--------P-----P------|
A|---------------------------------------------0-0---0-0---0----|
E|----------------3-3---3-3---3-0-0---0-0----0------------------|

e|----0-----0-------2-----2-------0-----0--------0-------------|
B|----3-T---3-T-----3-T---3-T-----3-T---3-T------3-T-----------|
G|------A-----A-------A-----A-------A-----A--------A----1-1----|
D|--0-0-P-0-0-P-0-----P-----P-------P-----P--------P-----------|
A|---------------------------------------------0-0---0--1-1----|
E|----------------3-3---3-3---3-0-0---0-0----0-----------------|

pre-chorus:
e|------------------0-----0-------2-----2--------2-----2-------|
B|----3-T---3-T-----3-T---3-T-----3-T---3-T------3-T---3-T-----|
G|----2-A---2-A-------a-----A-------A-----A--------A-----A-----|
D|------P-----P-------P-----P-------P-----P--------P-----P-----|
A|--2-2---2-2---2-0-0---0-0---0--------------------------------|
E|------------------------------3-3---3-3---3--3-3---3-3---3---|


e|----0-----0-------0-----0-------2-----2------2-----------|
B|----3-T---3-T-----3-T---3-T-----3-T---3-T------3---------|
G|------A-----A-----2-A---2-A-------A-----A--------0-------|
D|------P-----P-------P-----P-------P-----P----------0-----|
A|---------------------------------------------------------|
E|--0-0---0-0---0-2-2---2-2---2-3-3---3-3---3-3------------|


chorus: 4x
e|----0-----0--------0-----0-------0-----0-------2-----2------|
B|----2-T---2-T------3-T---3-T-----3-T---3-T-----3-T---3-T----|
G|------A-----A--------A-----A-----2-A---2-A-------A-----A----|
D|--0-0-P-0-0-P-0------P-----P-------P-----P-------P-----P----|
A|------------------------------------------------------------|
E|-----------------0-0---0-0---0-2-2---2-2---2-3-3---3-3---3--|

bridge: Em7 - D/F# - G - A (2x)

chorus:  D - Em - D/F# - G  (bagsakan lang)

         D - Em - D/F# - G - A - B (tapos mag palm mute nalang sa 2nd round pataas na ng key)


chorus: E - F#m - G#m - A
(strum)
e|-----------------------|
B|-----------------------|
G|---9--11--13--14-------|
D|-----------------------|
A|---7- -9--11--12-------|
E|-----------------------|


ending:


e|----------------------|
B|--------------9---12--|
G|----9---11------------| 4x
D|--9---9----9----9-----|
A|----------------------|
E|----------------------|



e|-------|
B|-12----|
G|--9----|
D|--9----|
A|-------|
E|-------|


lyrics:

Tulala lang sa'king kwarto
At nagmu-muni-muni
Ang tanong sa'king sarili
Sa'n ako nagkamali

Bakit sa'yo pa nagkagusto
Parang bula ika'y naglaho

Chorus:
Porque contigo yo ya escoji
Ahora mi corazon ta supri
Bien simple lang iyo ta pidi
Era cinti tu el cosa yo ya cinti
Ta pidi milagro, vira'l tiempo
El mali hace derecho
Na di mio reso ta pidi yo
Era olvida yo contigo
[ Lyrics from: http://www.lyricsmode.com/lyrics/m/maldita/porque_tagalog.html ]
Ang lahat ay binigay ko
Ngayon ay sising-sisi
Sobra sobra ang parusa
Di alam kung kaya pa

Wag nang lumapit
At tumawag pa at baka masampal lang kita
Di babalikan
Magsisi ka man
Ako ay lisanin

Porque contigo yo ya escoji
Ahora mi corazon ta supri
Bien simple lang iyo ta pidi
Era cinti tu el cosa yo ya cinti

Bakit ikaw pa ang napili
Ngayon ang puso ko ay sawi
Kay simple lang ng aking hiling
Na madama mo rin ang pait at pighati

Sana'y magmilagro
Mabalik ko
Mali ay maiderecho
Pinagdarasal ko sa'king puso
Na mabura na sa isip ko
Tap to rate this tab
 
# A B C D E F G H I J K L M N O P Q R S T U V W X Y Z