Song name
# A B C D E F G H I J K L M N O P Q R S T U V W X Y Z

Maldita - Porque chords

Highlighted       Show chord diagrams
Title: Porque
Artist: Maldita

Chords by: Marvin R. Cacho BSN, RN
Place: Laoag City, Ilocos Norte
e-mail: sayona_chi2000@yahoo.com
Tuning: Standard (Capo on 2nd Fret)

> Paki rate nlng po. Tnx
> pagaralan nyo muna yung mga chords baka iba kasi yung nilagay kong pangalan ng chords
> I'm 99.99% sa tunog nito
> pag may mali e-mail nyo ako.tnx

Chords Used:
D-      xx0232
G-      320033
Em7-    022030
A-      x02220
Asus-   x02230
Bm-     x24432
F#m-    244222
Em5-    022033
B-      024442
E-      022100
F#m7-   242222
G#m -    466444

Intro Tab: A
              D  sm        G  sm
e|---0h2p0---0-2-2-------0-2-2---------|
B|--------3----3-3---3---3-3-3---3-0---|
G|-2-----------------2---------0-------|
D|-----------0---0-------------------0-|
A|-------------------------------------|
E|-----------------------3-------------|
      
   Em7              A   sm     
e|---------0-----------0-0------------|
B|-----------3---3-----2-2------------|
G|-------0-----0----2-----------------|
D|-----2------------------------------|
A|---2--------------0----0-0----------|
E|-0----------------------------------|
   

Intro Tab: B
              D  sm       G  sm
e|---0h2p0---0-2-2-------0-2-2--2-3-3s5-|
B|--------3----3-3---3---3-3-3----------|
G|-2-----------------2------------------|
D|-----------0---0----------------------|
A|--------------------------------------|
E|-----------------------3--------------|
      
   Em7              A        
e|---------0---------------5---|
B|-----------3---3-------------|
G|-------0-----0----2----2-----|
D|-----2---------------2-------|
A|---2--------------0----------|
E|-0---------------------------|

Note:
Sm- String mute

VERSE 1:
     D              G
Tulala lang sa 'king kwarto
     Em7         A
At nagmu-muni-muni
       D              G
Ang tanong sa 'king sarili
Em7             A
Sa'n ako nagkamali

Refrain:
Bm        A            G-G
Bakit sa 'yo pa nagkagusto
Em7        F#m          G
  Parang bula ika'y naglaho

Chorus1:
          D              Em7
Porque contigo yo ya eskuhi?
             F#m       G
Ahora mi corazon ta supri
             D             Em7
Bien simple lang iyo ta pidi
        F#m       G
Era cinti tu el cosa yo ya cinti
D           Em5          F#m
Ta pidi milagro bira'l chempo
       G        D
El mali ase derecho
         Em5       F#m
Na dimio reso ta pidi yo
     G                Do Intro B
Era ulvida yo contigo


VERSE 2:
      D             G
Ang lahat ay binigay ko
    Em5          A
Ngayon ay sising-sisi
       D           G
Sobra sobra ang parusa
         Em5       A  Asus
Di alam kung kaya pa


Repeat Refrain

Repeat Chorus


Bridge:
Em5          F#m
  Wag nang lumapit
     G              A                Em5
At tumawag pa at baka masampal lang kita
     F#m
Di babalikan
     G
Magsisi ka man
           A    (Pause)
Ako ay lisanin

Chorus2:
          D              Em7
Porque contigo yo ya iskuji
           F#m         G
Aura mi corazon ta supri
            D              Em7
Bien simple lang iyo ta pidi
        F#m       G           A   B
Era cinti tu el cosa yo ya cinti


Chorus 3: (2 frets higher)

         E             F#m7
Bakit ikaw pa ang napili
           G#m           A
Ngayon ang puso ko ay sawi
             E             F#m7
Kay simple lang ng aking hiling
       G#m             A
Na madama mo rin ang pait at pighati
E           F#m7
Sana'y magmilagro
  G#m
Mabalik ko
         A
Mali ay maiderecho
E            F#m7         G#m
Pinagdarasal ko sa 'king puso
       A               (Fade)
Na mabura na sa isip ko

Outro Tab:

e|----------------4--|
B|----4---5---4------|
G|--4---4---4---4----| (X4)
D|-------------------|
A|-------------------|
E|-------------------|

e|----------------4--|
B|----4---5---4---5--|
G|--4---4---4---4-4--|
D|-------------------|
A|-------------------|
E|-------------------|

>paki rate nlng po.sana mataas ang rating hehe. tnx
>I hope you enjoyed singing, playing or studying this song
>pag may mali just e-mail me.tnx
>Porque?^_^.
Tap to rate this tab
# A B C D E F G H I J K L M N O P Q R S T U V W X Y Z