Song name
# A B C D E F G H I J K L M N O P Q R S T U V W X Y Z

Maldita - Porque tab

	Porque-Maldita
first tab ko po :D

CAPO 2nd FRET! :)

          D                  G            Bm7                                

e|-----0h2-0---0--2-2--0----0--2--2------------------2--------------|
B|-----------------------3-----3--3--3-----------------3------------|
G|----------------------------------0-0----------2------------------|
D|-------------0--0-0--0-----------------------4---4----------------|
A|---0---------------------------------------2----------------------|
E|--------------------------3--3--3--------0------------------------|

e|----0---0---------------------------------------------------------|
B|--3-3-T-3---------------------------------------------------------|
G|--0---A-----------------------------------------------------------|
D|------P-----------------------------------------------------------|
A|--0-----0---------------------------------------------------------|
E|------------------------------------------------------------------|



          D                  G                      Bm7                    

e|-----0h2-0---0--2-2--0----0--2--2---2--3----5---------------2-----|
B|-----------------------3--3--3--3-----------------------------3---|
G|--------------------------------------------------------2---------|
D|-------------0--0-0--0--------------------------------4---4-------|
A|---0------------------------------------------------2-------------|
E|--------------------------3--3--3-----------------0---------------|



e|-----------5------------------------------------------------------|
B|-------3----------------------------------------------------------|
G|------------------------------------------------------------------|
D|----2-------------------------------------------------------------|
A|--0---------------------------------------------------------------|
E|------------------------------------------------------------------|
Tap to rate this tab
# A B C D E F G H I J K L M N O P Q R S T U V W X Y Z