Song name
# A B C D E F G H I J K L M N O P Q R S T U V W X Y Z

Maldita - Porque tab

-----------------------------------------------------------------------------
-----------------------------------------------------------------------------
Porque by Maldita (Tagalog Version)
-----------------------------------------------------------------------------
-----------------------------------------------------------------------------
Nope: "TAP" means you should tap the strings. This song is easy to learn. Enjoy!!!!


CAPO at 2nd FRET
Intro: D G Em7/Bm A

 	D                
e|-----0*2*0----0--2---T---2---0-------|
B|-----3-----3--3--3---A---3---3--T--2-|
G|--2-----------------------------A--3-|
D|--------------0------P---0------P--0-|
A|-------------------------------------|
E|-------------------------------------|

	G
e|--0--2--T--2-------------------------|
B|--3--3--A--3-------3-----------------|
G|-----------------0---4---------------|
D|-------------------------------------|
A|-------------------------------------|
E|--3-----P--3--3----------------------|

	Em7/Bm
e|------------0------------------------|
B|----------3---3----------------------|
G|----------------4--------------------|
D|------0-----------0------------------|
A|----2--------------------------------|
E|--0----------------------------------|

	A
e|-----0--T--0-------------------------|
B|--2--2--A--2-------------------------|
G|--2----------------------------------|
D|-------------------------------------|
A|--0-----P--0--0----------------------|
E|-------------------------------------|

	D
e|-----0*2*0----0--2---T---2---0-------|
B|-----3-----3--3--3---A---3---3--T--2-|
G|--2-----------------------------A--3-|
D|--------------0------P---0------P--0-|
A|-------------------------------------|
E|-------------------------------------|

	G
e|--0--2--T--2-----2-3-3/5-------------|
B|--3--3--A--3-----3-------------------|
G|-------------------------------------|
D|-------------------------------------|
A|-------------------------------------|
E|--3-----P--3--3----------------------|

	Em7/Bm
e|------------0------------------------|
B|----------3---3----------------------|
G|----------------4--------------------|
D|------0-----------0------------------|
A|----2--------------------------------|
E|--0----------------------------------|

	A
e|-----------5-------------------------|
B|--2------2---------------------------|
G|--2----2-----------------------------|
D|-------------------------------------|
A|--0----------------------------------|
E|-------------------------------------|




Game na dito:
[Verse1]>>Guys you should get this<<

              D
e|------0--------0---------------------|
B|---2--2--T--2--2--T--2---------------|
G|---3-----A--3-----A--3---------------|
D|---0-----P--0-----P--0---------------|
A|-------------------------------------|
E|-------------------------------------|
Tulala   lang  sa  ’king


             G
e|------2----------2-------------------|
B|---3--3---T---3--3-----T---3---------|
G|---0------A---0--------A---0---------|
D|-------------------------------------|
A|-------------------------------------|
E|---3------P---3--------P---3---------|
     kwarto        At 



	     Em
e|------0----------0-------------------|
B|---3--3---T---3--3---T---3-----------|
G|---0------A---0------A---0-----------|
D|-------------------------------------|
A|-------------------------------------|
E|---0------P---0------P---0-----------|
  nagmu-muni-               


     	     A
e|------0----------0-------------------|
B|---3--3---T---3--3---T---3-----------|
G|---2------A---2------A---2-----------|
D|-------------------------------------|
A|---0------P---0------P---0-----------|
E|-------------------------------------|
muni

                  D
e|------0--------0---------------------|
B|---2--2--T--2--2--T--2---------------|
G|---3-----A--3-----A--3---------------|
D|---0-----P--0-----P--0---------------|
A|-------------------------------------|
E|-------------------------------------|			
Ang tanong       sa’k ing 

            G
e|------2----------2-------------------|
B|---3--3---T---3--3-----T---3---------|
G|---0------A---0--------A---0---------|
D|-------------------------------------|
A|-------------------------------------|
E|---3------P---3--------P---3---------|
sarili

  	     Em
e|------0----------0-------------------|
B|---3--3---T---3--3---T---3-----------|
G|---0------A---0------A---0-----------|
D|-------------------------------------|
A|-------------------------------------|
E|---0------P---0------P---0-----------|
Sa’n ako 

        A
e|--------0----------------------------|
B|-----3--3---T---3---2--2-------------|
G|-----2------A---2---1--1-------------|
D|--------------------2--2-------------|
A|-----0------P---0--------------------|
E|-------------------------------------|
nagkamali


           Em7/Bm
e|------0----------0-------------------|
B|---3--3---T---3--3---T---3-----------|
G|---4------A---4------A---4-----------|
D|-------------------------------------|
A|---2------P---2------P---2-----------|
E|-------------------------------------|
                 Bakit   sa’yo 

            A
e|------0----------0-------------------|
B|---3--3---T---3--3---T---3-----------|
G|---2------A---2------A---2-----------|
D|-------------------------------------|
A|---0------P---0------P---0-----------|
E|-------------------------------------|
            pa     nagka    

	   G
e|------2----------2------------2---------2---------|
B|---3--3---T---3--3---T---3-3--3--T---3--3---T---3-|
G|---0------A---0------A---0-0-----A---0------A---0-|
D|--------------------------------------------------|
A|--------------------------------------------------|
E|---3------P---3------P---3-3-----P---0------P---0-|
gusto

           Em7/Bm
e|------0----------0-------------------|
B|---3--3---T---3--3---T---3-----------|
G|---4------A---4------A---4-----------|
D|-------------------------------------|
A|---2------P---2------P---2-----------|
E|-------------------------------------|
                   Parang bula 


            A
e|------0----------0-------------------|
B|---3--3---T---3--3---T---3-----------|
G|---2------A---2------A---2-----------|
D|-------------------------------------|
A|---0------P---0------P---0-----------|
E|-------------------------------------|
            ika’y 


	    G
e|------2----------2-----------2-------|
B|---3--3---T---3--3---T---3-----3-----|
G|---0------A---0------A---0-------0---|
D|-----------------------------------0-|
A|-------------------------------------|
E|---3------P---3------P---3---0-------|
naglaho

Chorus:


Porque contigo yo ya eskuhi
Aura mi corazon ta supri
Bien simple lang iyo ta pidi
Era cinti tu el cosa yo ya cinti
Ta pidi milagro, vira’l tiempo
El mali hace derecho
Na dimio reso ta pidi yo
Era olvidas yo contigo

Ang lahat ay binigay ko
Ngayon ay sising-sisi
Sobra sobra ang parusa
Di alam kung kaya pa

Wag nang lumapit
At tumawag pa at baka masampal lang kita
Di babalikan
Magsisi ka man
Ako ay lisanin

Porque contigo yo ya eskuhi
Aura mi corazon ta supri
Bien simple lang iyo ta pidi
Era cinti tu el cosa yo ya cinti

Bakit ikaw pa ang napili
Ngayon ang puso ko ay sawi
Kay simple lang ng aking hiling
Na madama mo rin ang pait at pighati

Sana’y magmilagro
Mabalik ko
Mali ay maiderecho
Pinagdarasal ko sa’king puso
Na mabura na sa isip ko

This is very nice OPM song!!! Please support OPM...
For any comments or concerns please add me in my FB account(shudney_santos@yahoo.com)
Tap to rate this tab
# A B C D E F G H I J K L M N O P Q R S T U V W X Y Z