Male Bonding - Worse To Come tab

Tuning: Standard

Listen to it to figure out the strumming pattern (http://www.youtube.com/watch?v=OkxwQBySbYU)

Intro/Verse

e--------------------------------------------------------|
B--------------------------------------------------------|
G-11----14----11----14----12----11-9-7---------7---------|
D-11-x4-14-x4-11-x2-14-x2-12-x2-11-9-7-x4-7----7-x4-7----| x4
A-9-----12----9-----12----10----9--7-5----7-x4-5----7-x4-|
E-----------------------------------------5---------5----|

Bridge

e-----------------------------|
B-----------------------------|
G-11-11-/14-11-9-9-/11-9-7----|
D-11-11-/14-11-9-9-/11-9-7-x6-| x2
A-9--9--/12-9--7-7-/9--7-5----|
E-----------------------------|

Repeat Verse x2

Then this little part happens

e-------------|
B-------------|
G-11----------|
D-11-x4-12----| x4
A-9-----12-x2-|
E-------10----|

Repeat Verse Once and then

e----------------------------|
B----------------------------|
G-11----14----11----14----12-|
D-11-x4-14-x4-11-x2-14-x2-12-|
A-9-----12----9-----12----10-|
E----------------------------|

Then the song changes and i haven't quite figured it out yet
Tap to rate this tab
 
# A B C D E F G H I J K L M N O P Q R S T U V W X Y Z