Song name
# A B C D E F G H I J K L M N O P Q R S T U V W X Y Z

Malice - Wrong Reasons tab

Malice "Wrong Reasons"
Drop C Tuning (CGCFAD)
Guitar 1 (Brandon)

*= Palm Mute

Intro (Clean) x12
D:---------------------------------------------|
A:---------------------------------------------|
F:------------13---------------13--------------|
C:---14-14------14----14-14------14-------13---|
G:12-------12------12-------12---------14----14|
C:----------------------------------12---------|
            "I never said..."

Beginning (Distortion) x3
D:----------------|--------------------|----------------|--------------------|
A:----------------|--------------------|----------------|--------------------|
F:----666-44444444|----666-444---------|----666-44444444|----666-444---------|
C:444-------------|444---------66666666|----------------|------------66666666|
G:444-------------|444-----------------|000-------------|000-----------------|
C:444-------------|444-----------------|000-------------|000-----------------|

Breakdown x4
D:-------------------------|-------------------------|
A:-------------------------|-------------------------|
F:-------------------------|-------------------------|
C:444444-44-44-444444-44-44|000000-00-00-000000-00-00|
G:444444-44-44-444444-44-44|000000-00-00-000000-00-00|
C:444444-44-44-444444-44-44|000000-00-00-000000-00-00|
  ****** ** ** ****** ** ** ****** ** ** ****** ** **

Middle x4
D:-------------------------|-------------------------|
A:--------------------5----|--------------------5----|
F:---6---4----6---4---4---6|---6---4----6---4---4---6|
C:44-4---4----4---4---4---4|00-0---0----0---0---4---0|
G:44-4-4-4-44-4-4-4-4---4-4|00-0-0-0-00-0-0-0-0---0-0|
C:44---4---44---4---4---4--|00---0---00---0---0---0--|
  **   *   **   *   *   *   **   *   **   *   *   *
            "Baby, we are the end..."

Final x4
D:----------------|--------------------|----------------|--------------------|
A:----------------|--------------------|----------------|--------------------|
F:----666-44444444|----666-444---------|----666-44444444|----666-444---------|
C:444-------------|444---------66666666|----------------|------------66666666|
G:444-------------|444-----------------|000-------------|000-----------------|
C:444-------------|444-----------------|000-------------|000-----------------|
            "And yes you are..."
Tap to rate this tab
 
# A B C D E F G H I J K L M N O P Q R S T U V W X Y Z