Song name
# A B C D E F G H I J K L M N O P Q R S T U V W X Y Z

Mallory Knox - Oceans tab

This version may not be 100% accurate, but that's how I play it with my band.

Check out my cover on youtube, if you wanna see what it sounds like:
http://www.youtube.com/watch?v=7-FTcjw4uB0


Rhytm Guitar:

Intro
e|---------------------------------------------------------------------------|
B|---------------------------------------------------------------------------|
G|---------------------------------------------------------------------------|
D|---------------------------------------------------------------------------|   x2
A|--5--x16---5--x8---4--x8---5--x16---5---x8----5---x8-----------------------|
D|--5--------0-------0-------5--------3---------2----------------------------|


Interlude:
e|----------------------------------------------------------------------------|
B|----------------------------------------------------------------------------|
G|------------10-----------------10-------------------------------------------|
D|---0--------x---x4----0---------x--x4----8--------3--5--3--5--3-------------|
A|---0--x4----8---------0---x3----8--------8--x5----3--5--3--5--3-------------|
D|---0------------------0------------------8--------3--5--3--5--3-------------|
                                                PM  x  x  x



e|----------------------------------------------------------------------------|
B|----------------------------------------------------------------------------|
G|------------10-----------------10-------------------------------------------|
D|---0--------x---x4----0---------x--x4----8----------------------------------|
A|---0--x4----8---------0---x3----8--------8--x8------------------------------|
D|---0------------------0------------------8----------------------------------|



e|----------------------------------------------------------------------------|
B|----6---5---10----10---5--6-------------------------------------------------|
G|----7---5---10----10---5--7-------------------------------------------------|
d|----8---7---12----12---7--8-----8-8-----------------------------------------|
A|--------------------------------8-8-----------------------------------------|
D|--------------------------------8-8-----------------------------------------|


Verse 1:
Repeat Intro but Palm Muted


Then again:

Interlude:
e|----------------------------------------------------------------------------|
B|----------------------------------------------------------------------------|
G|------------10-----------------10-------------------------------------------|
D|---0--------x---x4----0---------x--x4----8--------3--5--3--5--3-------------|
A|---0--x4----8---------0---x3----8--------8--x5----3--5--3--5--3-------------|
D|---0------------------0------------------8--------3--5--3--5--3-------------|
                                                PM  x  x  x



e|----------------------------------------------------------------------------|
B|----------------------------------------------------------------------------|
G|------------10-----------------10-------------------------------------------|
D|---0--------x---x4----0---------x--x4----8----------------------------------|
A|---0--x4----8---------0---x3----8--------8--x8------------------------------|
D|---0------------------0------------------8----------------------------------|


Verse 2:
e|----------------------------------------------------------------------------|
B|----------------------------------------------------------------------------|
G|----------------------------------------------------------------------------|
D|-----5-------7---3---8-------0-----10---3---8-------------------------------|
A|-----5--x8---7---3---8--x14--0-x8--10---3---8---x14-------------------------|
D|-----5-------7---3---8-------0-----10---3---8-------------------------------|



e|----------------------------------------------------------------------------|
B|----------------------------------------------------------------------------|
G|----------------------------------------------------------------------------|
d|---5---------7-------8-------11---------------------------------------------|
A|---5---x8----7--x8---8--x8---11---x8----------------------------------------|
D|---5---------7-------8-------11---------------------------------------------|




e|----------------------------------------------------------------------------|
B|----------------------------------------------------------------------------|
G|----------------------------------------------------------------------------|
D|-----0-----10---3---8-------------------------------------------------------|
A|-----0-x8--10---3---8---x14-------------------------------------------------|
D|-----0-----10---3---8-------------------------------------------------------|


Verse 3:
e|-----------------------------|----------------------------------------------|
B|-----------------------------|----------------------------------------------|
G|-----------------------------|----------------------------------------------|
D|---------3-------3-----------|--8-------5-----------------------------------|
A|-----3h5-----3h5-----3h5-x3--|--8--x8---5--x8-------------------------------|
D|---0-------0-------0---------|--8-------5-----------------------------------|


e|------------------------------|---------------------------------------------|
B|------------------------------|---------------------------------------------|
G|------------------------------|---------------------------------------------|
D|---------3-------3------------|---8------5----------------------------------|
A|-----3h5-----3h5-----3h5--x3--|---8--x8--5--x12-----------------------------|
D|---0-------0-------0----------|---8------5----------------------------------|


Coda:
e|----------------------------------------------------------------------------|
B|----------------------------------------------------------------------------|
G|----------------------------------------------------------------------------|
D|----8-------10--------0-----------------------------------------------------|
A|----8--x16--10--x16---0--x32------------------------------------------------|
D|----8-------10--------0-----------------------------------------------------|



Outro:
e|----------------------------------------------------------------------------|
B|----6--5--10--10------------------------------------------------------------|
G|----7--5--10--10------------------------------------------------------------|
D|----8--7--12--12------------------------------------------------------------|
A|----------------------------------------------------------------------------|
D|----------------------------------------------------------------------------|



Lead Guitar:


Starts on the second half of the Intro:
e|----------------------------------------------------------------------------|
B|----------------------------------------------------------------------------|
G|---15--x16---14--x8---14----------------------------------------------------|
D|---17--------15-------15---x8-----------------------------------------------|
A|----------------------16----------------------------------------------------|
D|----------------------------------------------------------------------------|


Verse 1:
e|----------------------------------------------------------------------------|
B|----------------------------------------------------------------------------|
G|---------15--------15----15----15--------15----15---------------------------|
D|--17-17-----17-17----17----17-----17-17----17-------------------------------|
A|----------------------------------------------------------------------------|
D|----------------------------------------------------------------------------|


e|----------------------------------------------------------------------------|
B|----------------------------------------------------------------------------|
G|---------14-------14-----14---------14------14----14------------------------|
D|--15-15----15-15-----15---------15-------15---------------------------------|
A|-----------------------------16--------16-------16--------------------------|
D|----------------------------------------------------------------------------|



Coda:
e|----------------------------------------------------------------------------|
B|----------------------------------------------------------------------------|
G|-----10--------10--------10---------12-------14-----------------------------|
D|-----x---x16---x---x16---x---x16----x---x8---x---x8-------------------------|
A|-----8---------7----------8---------10-------12-----------------------------|
D|----------------------------------------------------------------------------|


Outro:
e|----------------------------------------------------------------------------|
B|--------13------------15-----------17----------18-----------17--------------|
G|-----14----x5------14----x5-----14----x5----17-----x2----17----x3-----------|
D|--15------------15-----------15-----------19-----------19-------------------|
A|----------------------------------------------------------------------------|
D|----------------------------------------------------------------------------|




Check out my cover on youtube, if you wanna see what it sounds like: 
http://www.youtube.com/watch?v=7-FTcjw4uB0
Tap to rate this tab
# A B C D E F G H I J K L M N O P Q R S T U V W X Y Z