Song name
# A B C D E F G H I J K L M N O P Q R S T U V W X Y Z

Mallory Knox - 1949 tab

Hey, so I noticed this song hasn't been tabbed and there is no tutorial videos 
either..so yeah this is my first tab. I'm pretty sure it's right.

Tuning: Drop D

Intro:

e---x----x----x----x----x-|  Play this part 6 times
B---x----x----x----x----x-|  Listen to song for strumming
G---5----4----2----4----5-|
D---5----x----x----x----5-|
A---7----5----3----5----7-|
D---7----5----3----5----7-|

e---x----x----x----x----x----x-|    one strum each
B---x----x----x----x----x----x-|
G---4----x----2----4----5----2-|
D---x----x----x----x----5----x-|
A---5----3----3----5----7----3-|
D---5----3----3----5----7----3-|

Chorus:

e---3---3---2-| Play this 3 times     ---2---3---3---2---3---3---| One strum
B---3---3---3-|                       ---3---3---3---3---3---3---|     each
G---0---0---2-| listen for strumming  ---2---0---0---2---0---0---|
D---2---0---0-|                       ---0---2---2---0---2---2---|
A---3---2---x-|                       ---x---2---3---x---2---3---|
D---0---3---x-|                       ---x---0---0---x---0---0---|

Verse:

repeat intro, but only play 2 times instead of 4

e---3---3---3--|  play 3 times
B---3---3---3--|
G---0---0---2--|   On 4th, just do one strum each and do it 2 times
D---2---2---0--|
A---3---2---x--|
D---0---0---x--|


Chorus


Solo:

e--------------------------------------------|    |-------------|
B--------------------------------------------|    |-------------|
G---------7-----7--9--7----------------------|    |-------------|
D---7--9-----9-----------------5-----5--7--5-|X6  |-------------|
A------------------------5--7-----7----------|    |-7-7-5-5-4-4-|
D--------------------------------------------|    |-------------|

play into part once, then chorus, then into twice.
Tap to rate this tab
 
# A B C D E F G H I J K L M N O P Q R S T U V W X Y Z