Song name
# A B C D E F G H I J K L M N O P Q R S T U V W X Y Z

Mallory Knox - Lighthouse Acoustic tab

First tab so, yeah :) ***CAPO: 2nd FRET***
~Comments and corrections are helpful! Thank you. PS;

Sorry, I don't know the names of these chords!

Intro:

-3------3------3-----3-------------------|
-3------3------3-----3-------------------|
---------------------2-------------------|
-2-------------2-------------------------|  x2 (or whatever sounds best)
-3------2------2-------------------------|
--------3------------2-------------------|

Verse: (Exactly the same)
-3------3------3-----3-------------------|
-3------3------3-----3-------------------|
---------------------2-------------------|
-2-------------2-------------------------|
-3------2------2-------------------------|
--------3------------2-------------------|

Pre-Chorus:
-3----------3-----3-------------------|
-3----------3-----3-------------------|
------------------2-------------------|
-2----------2-------------------------|
-3----------2-------------------------|
------------------2-------------------|

Repeated all the way through, bridge is also the same as the chorus/verse/intro :)

~.~.~.~.
Lyrics;
~.~.~.~.

Verse
------
And Iím so tired
Of these buried lies, youíve spoke about a thousand times
With all your friends stuck by your side
Turning backs and minds

And all this time
Youíve been stabbing mine
Cutting dry at all my pride
But thereís a scar youíll never find
Right behind my eyes

Pre-chorus
------
You wonít sleep tonight
The whistle from the wind will haunt your mind
While theyíre all outside
Swimming to the shore

Chorus
------
Find the lighthouse in the dark
And shine a light on every single soul that weeps
That you have torn
Find the lighthouse in the dark
Directing ships that carries all their broken hearts
That you have torn apart

Verse
------
And Iíll never hide
Iíve only ever wanted love to bridge this gap of mine
But i never ever seem to reach the other side

So what do you want?
What do you want from me and need from me to make you feel
Make you feel alive

Pre-chorus
------
You wonít sleep tonight
The whistle from the wind will haunt your mind
Theyíre all outside
Swimming to the shore

Chorus
------
Find the lighthouse in the dark
And shine a light on every single soul that weeps
That you have torn
Find the lighthouse in the dark
Directing ships that carries all their broken hearts
That you have torn apart

Bridge
------
Her final words in time will light the way home
Her final words in time will light the way

Find us all,
Wish you could,
Touch your soul
l light it up
See the path
Itís time to go

Chorus
------
Find the lighthouse in the dark
And shine a light on every single soul that weeps
That you have torn
Find the lighthouse in the dark
Directing ships that carries all their broken hearts
That you have torn apart!
Tap to rate this tab
# A B C D E F G H I J K L M N O P Q R S T U V W X Y Z