Song name
# A B C D E F G H I J K L M N O P Q R S T U V W X Y Z

Mallory Knox - Keeping Secrets Acoustic tab

Band: Mallory Knox
Song: Keeping secrets acoustic
Tuning: Half Step down

Tabbed by Callum Philpott


>>>>> Lead guitar <<<<<
(I play the Lead guitar with a Digital Delay pedal, which I personally find sounds 
better than playing the same notes twice)

Intro x3

|------------0~--------------0~--------------0~------------------|
|0~--------------------------------------------------------------|
|----------------2~--------------------------------------2~------|
|--------------------------------2~--------------2~--------------|
|----------------------------------------------------------------|
|----------------------------------------------------------------|

Chorus x2

|----------------------------------------------------------------|
|10-7------------10-7------------10-7------------10s12s15s17-1717|
|------9--7--6-6-------9--7--6-6-------9--7--6-6-----------------|
|----------------------------------------------------------------|
|----------------------------------------------------------------|
|----------------------------------------------------------------|

Post Chorus

|14~-------------------------------------------------------------|
|----------------------------------------------------------------|
|----------------------------------------------------------------|
|----------------------------------------------------------------|
|----------------------------------------------------------------|
|----------------------------------------------------------------|

Verse x8

|--------(12)----------------------------------------------------|
|----(12)----(12)-----(7)-----(7)-----(7)-----(7)-----(7)-----(7)|
|(12)--------------(7)-----(7)-----(7)-----(7)-----(7)-----(7)---|
|----------------------------------------------------------------|
|----------------------------------------------------------------|
|----------------------------------------------------------------|

Chorus x2

|----------------------------------------------------------------|
|10-7------------10-7------------10-7------------10s12s15s17-1717|
|------9--7--6-6-------9--7--6-6-------9--7--6-6-----------------|
|----------------------------------------------------------------|
|----------------------------------------------------------------|
|----------------------------------------------------------------|
Post Chorus x3

|----------------------------------------------------------------|
|7--8--9---------7--8--9---------7--8--9---------7--8--5---------|
|----------------------------------------------------------------|
|----------------------------------------------------------------|
|----------------------------------------------------------------|
|----------------------------------------------------------------|

Chorus x5

|17-14-12-10-9---17-14-12-10-9---17-14-12-10-9-------------------|
|------------------------------------------------10s12s15s17-1717|
|----------------------------------------------------------------|
|----------------------------------------------------------------|
|----------------------------------------------------------------|
|----------------------------------------------------------------|

Outro

|17s19-19-19-----------------------------------------------------|
|----------------------------------------------------------------|
|----------------------------------------------------------------|
|----------------------------------------------------------------|
|----------------------------------------------------------------|
|----------------------------------------------------------------|


>>>>> Rhythm guitar 1 <<<<<



Intro x3

|0~--------------0~--------------0~--------------0~------0~------|
|0~--------------0~--------------0~--------------0~------0~------|
|4~--------------2~--------------0~--------------0~------2~------|
|4~--------------2~--------------2~--------------2~------2~------|
|2~--------------0~--------------2~--------------2~------0~------|
|--------------------------------0~--------------0~--------------|

Chorus x4

|0-00-0000-00-0000-00-0000-00-0000-00-0000-00-0000-00-0000-00-000|
|3-33-3333-33-3330-00-0000-00-0000-00-0000-00-0000-00-0000-00-000|
|2-22-2222-22-2222-22-2222-22-2224-44-4444-44-4442-22-2222-22-222|
|0-00-0000-00-0002-22-2222-22-2224-44-4444-44-4442-22-2222-22-222|
|----------------0-00-0000-00-0002-22-2222-22-2220-00-0000-00-000|
|----------------------------------------------------------------|

Post Chorus

|0~--------------------------------------------------------------|
|3~--------------------------------------------------------------|
|2~--------------------------------------------------------------|
|0~--------------------------------------------------------------|
|----------------------------------------------------------------|
|----------------------------------------------------------------|

Verse x2

|0000000000000000000000000000000000000000000000000000000000000000|
|0000000000000000000000000000000000000000000000000000000000000000|
|4444444444444444222222222222222200000000000000002222222222222222|
|4444444444444444222222222222222222222222222222222222222222222222|
|2222222222222222000000000000000022222222222222220000000000000000|
|--------------------------------0000000000000000----------------|

Chorus x2

|0-00-0000-00-0000-00-0000-00-0000-00-0000-00-0000-00-0000-00-000|
|3-33-3333-33-3330-00-0000-00-0000-00-0000-00-0000-00-0000-00-000|
|2-22-2222-22-2222-22-2222-22-2224-44-4444-44-4442-22-2222-22-222|
|0-00-0000-00-0002-22-2222-22-2224-44-4444-44-4442-22-2222-22-222|
|----------------0-00-0000-00-0002-22-2222-22-2220-00-0000-00-000|
|----------------------------------------------------------------|

Post Chorus x3

|0~--------------0~--------------0~--------------0~--------------|
|3~--------------0~--------------0~--------------0~--------------|
|2~--------------2~--------------4~--------------2~--------------|
|0~--------------2~--------------4~--------------2~--------------|
|----------------0~--------------2~--------------0~--------------|
|----------------------------------------------------------------|

Chorus x5

|0-00-0000-00-0000-00-0000-00-0000-00-0000-00-0000-00-0000-00-000|
|3-33-3333-33-3330-00-0000-00-0000-00-0000-00-0000-00-0000-00-000|
|2-22-2222-22-2222-22-2222-22-2224-44-4444-44-4442-22-2222-22-222|
|0-00-0000-00-0002-22-2222-22-2224-44-4444-44-4442-22-2222-22-222|
|----------------0-00-0000-00-0002-22-2222-22-2220-00-0000-00-000|
|----------------------------------------------------------------|

Outro

|0~--------------------------------------------------------------|
|3~--------------------------------------------------------------|
|2~--------------------------------------------------------------|
|0~--------------------------------------------------------------|
|----------------------------------------------------------------|
|----------------------------------------------------------------|


>>>>> Rhythm guitar 2 <<<<<



Intro x3

|----------------------------------------------------------------|
|----------------------------------------------------------------|
|----------------------------------------------------------------|
|9~--------------7~--------------2~--------------2~------7~------|
|9~--------------7~--------------2~--------------2~------7~------|
|7~--------------5~--------------0~--------------0~------5~------|

Chorus x4

|----------------------------------------------------------------|
|----------------------------------------------------------------|
|7-77-7777-77-777------------------------------------------------|
|7-77-7777-77-7777-77-7777-77-7779-99-9999-99-9997-77-7777-77-777|
|5-55-5555-55-5557-77-7777-77-7779-99-9999-99-9997-77-7777-77-777|
|----------------5-55-5555-55-5557-77-7777-77-7775-55-5555-55-555|

Post Chorus

|----------------------------------------------------------------|
|----------------------------------------------------------------|
|7~--------------------------------------------------------------|
|7~--------------------------------------------------------------|
|5~--------------------------------------------------------------|
|----------------------------------------------------------------|

Verse x2

|----------------------------------------------------------------|
|----------------------------------------------------------------|
|----------------------------------------------------------------|
|9999999999999999777777777777777722222222222222222222222277777777|
|9999999999999999777777777777777722222222222222222222222277777777|
|7777777777777777555555555555555500000000000000000000000055555555|
 .. .. . .. .. . .. .. . .. .. . .. .. . .. .. . .. .. . .. .. . 

Chorus x2

|0-00-0000-00-0000-00-0000-00-0000-00-0000-00-0000-00-0000-00-000|
|3-33-3333-33-3330-00-0000-00-0000-00-0000-00-0000-00-0000-00-000|
|2-22-2222-22-2222-22-2222-22-2224-44-4444-44-4442-22-2222-22-222|
|0-00-0000-00-0002-22-2222-22-2224-44-4444-44-4442-22-2222-22-222|
|----------------0-00-0000-00-0002-22-2222-22-2220-00-0000-00-000|
|----------------------------------------------------------------|

Chorus x5

|----------------------------------------------------------------|
|----------------------------------------------------------------|
|7-77-7777-77-777------------------------------------------------|
|7-77-7777-77-7777-77-7777-77-7779-99-9999-99-9997-77-7777-77-777|
|5-55-5555-55-5557-77-7777-77-7779-99-9999-99-9997-77-7777-77-777|
|----------------5-55-5555-55-5557-77-7777-77-7775-55-5555-55-555|

Outro

|----------------------------------------------------------------|
|----------------------------------------------------------------|
|7~--------------------------------------------------------------|
|7~--------------------------------------------------------------|
|5~--------------------------------------------------------------|
|----------------------------------------------------------------|
Tap to rate this tab
# A B C D E F G H I J K L M N O P Q R S T U V W X Y Z