Song name
# A B C D E F G H I J K L M N O P Q R S T U V W X Y Z

Mallory Knox - Lighthouse Acoustic tab

hey, i watched the acoustic session and i think i figured it out, it sounds good
and looks right. It may be a half step down i'm not sure, sounds good either way!

Strum through these the beginning...

e|-----x-----x-----x-----x-----x------x------|
B|-----3-----8-----7-----3-----12-----7------|
G|-----x-----x-----x-----x-----x------x------| (2 bar intro)
D|-----x-----x-----x-----x-----x------x------|
A|-----3-----7-----7-----3-----10-----5------|
E|-----x-----x-----x-----x-----x------x------|

he strums these once through and taps the guitar for the verse

e|-----x-----x-----x------x-----x------|
B|-----3-----8-----3------7-----8------|
G|-----x-----x-----x------x-----x------| (x3)
D|-----x-----x-----x------x-----x------|
A|-----3-----7-----3------7-----7------|
E|-----x-----x-----x------x-----x------|

the last verse is slightly different 'but there's a scar you'll never find'

e|-----x-----x-----x------|
B|-----3-----8-----7------|
G|-----x-----x-----x------|
D|-----x-----x-----x------|
A|-----3-----7-----5------|
E|-----x-----x-----x------|

Prechorus

e|-----x-----x-----|
B|-----3-----8-----|
G|-----x-----x-----| (x3)
D|-----x-----x-----|
A|-----3-----7-----|
E|-----x-----x-----|

until it goes too

e|-----x-----|
B|-----7-----|
G|-----x-----| (for 2 beats)
D|-----x-----|
A|-----5-----|
E|-----x-----|

Chorus

e|-----3-----3-----3-----2/3----|
B|-----3-----3-----3------3-----|
G|-----0-----0-----0------2-----| (strum through the chorus)
D|-----2-----0-----2------0-----|
A|-----3-----2-----2------0-----|
E|-----0-----3-----0------0-----|

Middle 8

e|-----x-----x-----x------x------|
B|-----3-----8-----3------3------|
G|-----x-----x-----x------x------|
D|-----x-----x-----x------x------| (the build up - one strum)
A|-----3-----7-----5------3------|
E|-----x-----x-----x------x------|

Middle 8

e|-----x-----x-----x------x-----|
B|-----3-----8-----3------7-----|
G|-----x-----x-----x------x-----|
D|-----x-----x-----x------x-----| (just go for it)
A|-----3-----7-----5------5-----|
E|-----x-----x-----x------x-----|
Tap to rate this tab
 
# A B C D E F G H I J K L M N O P Q R S T U V W X Y Z