Song name
# A B C D E F G H I J K L M N O P Q R S T U V W X Y Z

Malmsteen Yngwie - Crystal Ball tab

Help us improve GuitareTab! Take a short survey!
#----------------------------------PLEASE NOTE---------------------------------#
#This file is the author's own work and represents their interpretation of the #
#song. You may only use this file for private study, scholarship, or research. #
#------------------------------------------------------------------------------#

CRYSTAL BALL
As recorded by Yngwie Malmsteen
(From the 1988 Album ODYSSEY)

Transcribed by /\X/\M
	

Words and Music by Yngwie Malmsteen and Joe Lynn Turner

Bm
x 2 4 4 3 x
	
Asus2
x 0 x 2 0 0
	
D
x 5 4 2 3 x
	
G
3 x 5 4 3 x

A
x 0 2 2 2 x
	
Em
0 2 2 0 0 x
	
D/F#
2 x 0 2 3 x
	
Gopen
3 x 0 0 0 x

E/Ab
4 x 2 4 0 0
	
A(type 2)
x 0 2 2 2 0
	
Bm(type 2)
x 2 x 4 3 2
	
AV
x 0 x 6 5 5

BmVII
7 x x 7 7 7
	
AIX
x 0 x 9 10 9
	
Bsus2
x x 9 11 12 9
	
C5
x 3 5 5 x x

Bb7/E
x 7 8 6 8 x
	
Bsus4
x 2 4 4 5 x
	
B
x 2 4 4 4 x
	
C#sus4
x 4 6 6 7 x

C#
x 4 6 6 6 x
	
F#m
x x 4 2 2 x
	
E/AbIV
x x 6 4 5 x
	
F#m/A
x x 7 6 7 x

Gtr I (E A D G B E) - 'Untitled'
Gtr II (E A D G B E) - 'Untitled'
Gtr III (E A D G B E) - 'Untitled'

 Intro
  Moderately Q=127
  Bm   Asus2     Bm   Asus2     Bm   Asus2     Bm   Asus2
 4/4
  Gtr I
  Q.   E +H      Q.   E +H      Q.   E +H      Q.   E +H
  |    |  |      |    |  |      |    |  |      |    |  |
  /    /  /      /    /  /      /    /  /      /    /  /

  Gtr II
  W              W              W              H       E E E E
|--------------|--------------|--------------|-----------------|
|--------------|--------------|--------------|-----------------|
|--------------|--------------|--------------|-------------4-6-|
|--------------|--------------|--------------|-----------4-----|
|--------------|--------------|--------------|-----------------|
|--------------|--------------|--------------|-----------------|


  Bm         Asus2         Bm     Asus2
        Q.   E +H           Q.    E +H
        |    |  |           |     |  |
        /    /  /           /     /  /

                    ~~~                  PM----|
                                         |-3-|
  a    +H      +E  +Q.     +Q   Q    E E S S S E
|------------------------|-------------------7-9-|
|------------------------|-----------------7-----|
|-6b7==(6)-----(6)r(6)---|-(6)-----------7-------|
|------------------------|-------------9---------|
|------------------------|-----------------------|
|------------------------|-----------------------|


       Bm          Asus2            Bm   Asus2
        Q.         E  +H            Q.   E +H
        |          |   |            |    |  |
        /          /   /            /    /  /

                                                  |--3--|  |--3--|
  a    +E.  E  +E.    +E   S S Q    H       S  S  S  S  S  S  S  S  T  T  T  T
|-9b10r(9)s12-(12)---(12)p10p9----|--------------------------------------10h12h===|
|---------------------------------|-----------------------------11h12h14-10-------|
|---------------------------------|--------------------11h12h14-------------------|
|---------------------------------|-----------11h12h14----------------------------|
|---------------------------------|-----------------------------------------------|
|---------------------------------|-----------------------------------------------|


  Bm            Asus2               Bm     Asus2
   Q.             E   +H              Q.   E  +H
   |              |    |              |    |   |
   /              /    /              /    /   /

                                               >
                              \1/
   Q   E  a      +E   +Q.    +E      +H       +H
|-14-----15b17==(15)-(15)---(15)--|-(15)-----(15)r----|
|---------------------------------|-------------------|
|---------------------------------|-------------------|
|---------------------------------|-------------------|
|---------------------------------|-------------------|
|---------------------------------|-------------------|


  Bm    Asus2     Bm             Asus2
   Q.   E +H      Q.              E    +H
   |    |  |      |               |     |
   /    /  /      /               /     /

   ~~~
   Q.   E  H      E   S  S  S  S  S  S  S  S  S  S  S  S  S  S
|-19------------|----14h15----------15----15----15----14-------|
|---------------|----------17p15-15----14-------------------12-|
|---------------|----------------------------16----14----12----|
|---------------|----------------------------------------------|
|---------------|----------------------------------------------|
|---------------|----------------------------------------------|


  Bm               Asus2             Bm     Asus2
   Q.               E  +H            Q.     E +H
   |                |   |            |      |  |
   /                /   /            /      /  /

   E.     +S   +E   E  +Q.    +E     Q    Q    S  S  S  S  S  S  S  S
|----------------------------------|----------------------14p10-------|
|----------------------------------|-------------------12-------12----|
|----------------------------------|----------11----11-------------11-|
|-16b17==(16)r(16)p14-(14)---(14)\-|-----12------12-------------------|
|----------------------------------|----------------------------------|
|----------------------------------|----------------------------------|


  Bm                      Asus2         Bm           Asus2
   Q.                     E  +H           Q.         E +H
   |                      |   |           |          |  |
   /                      /   /           /          /  /

   E   S     S  S     +E.    +Q    Q     +E.  S  +Q     Q.   E
|-----------10------------------------|------------------------|
|-12--14b15----14b15r(14)---(14)p=10--|-(10)h12-(12)-----------|
|-------------------------------------|----------------11h==14-|
|-------------------------------------|------------------------|
|-------------------------------------|------------------------|
|-------------------------------------|------------------------|


  Bm          Asus2          Bm    Asus2        Bm   Asus2
   Q.         E    +H        Q.    E +H         Q.   E +H
   |          |     |        |     |  |         |    |  |
   /          /     /        /     /  /         /    /  /

   S  E.  +E.    S  Q.   E   Q   E E  E E E E   W
|--------------------------|------------------|--------------|
|--------------------------|------------------|--------------|
|---------------14---------|-------7s=6-----6-|--------------|
|-14s16--(16)------16\-----|-----9------7-7---|-9------------|
|--------------------------|------------------|--------------|
|--------------------------|------------------|--------------|


  Bm    Asus2     Bm    Asus2     Bm   Asus2
   Q.   E +H       Q.   E +H      Q.   E +H
   |    |  |       |    |  |      |    |  |
   /    /  /       /    /  /      /    /  /

                   >
                                             PM|
  +W              +H       H      H       Q  E E
|---------------|---------------|----------------||
|---------------|---------------|----------------||
|---------------|---------------|----------------||
|-(9)-----------|-(9)-----------|------------9-7-||
|---------------|---------------|----------------||
|---------------|---------------|----------------||


 Intro Riff
  D            G        A          Em
     Q.        H        E   +Q.    E  +H
     |         |        |    |     |   |
     /         /        /    /     /   /

  a  Q    E  a E +Q   E E   +Q   E Q.     +E   E
|-------------------------|----------------------|
|--------10---------------|----------------------|
|-9s11------11s9-(9)--7p6-|-(6)--7-9------(9)\---|
|-------------------------|----------------------|
|-------------------------|----------------------|
|-------------------------|----------------------|


  D           G        A          G
  Q.          H        E   +Q.    E +H
  |           |        |    |     |  |
  /           /        /    /     /  /

                                     ~~~
  E   E  E  a E +Q   E E    Q   E E +Q.   E
|------------------------|-------------------|
|-------10---------------|-------------------|
|----11----11s9-(9)--7s6-|--6----------------|
|------------------------|------7-9-(9)---9\-|
|------------------------|-------------------|
|------------------------|-------------------|


  D/F#       Gopen          E/Ab                 A(type 2)
  Q.          H              E        +Q.        Q.            +Q
  |           |              |         |         |              |
  /           /              /         /         /              /

  E  a  E  E  S S +E  S S E  E        +Q    S  S S   S S S S S  S S S S
|----------------------------------|--------7---------------------------|
|---------10----------------10b12==|=(10)r----10p7--------------7-------|
|-x--9s11----11s9-(9)-7h9----------|----------------10p9p7------7-------|
|-------------------------9--------|-----------------------9------9p7---|
|----------------------------------|----------------------------------9-|
|----------------------------------|------------------------------------|


    Bm    Asus2         Bm(typAV2)
     Q.   E +H           Q.   E +H
     |    |  |           |    |  |
     /    /  /           /    /  /

                                          |--3--|
  a  Q  E E +Q    E E   +H      +E  S  S  E  E  E
|---------------------|------------------------------|
|---------------------|------------------------------|
|---------------------|---------------------11-------|
|-9h11p=7S9-(9)\--4s7-|-(7)-----(7)-9-11-12----12----|
|---------------------|------------------------------|
|---------------------|------------------------------|


  BmVII           AIX             Bsus2
   Q.             E  +H             W
   |              |   |             |
   /              /   /             /

                          T
   S   S  S  S  Q    +E.  S  Q     +H.        Q
|--------------14---(14)-19p14--|-(14)------(14)--||
|-----------12------------------|-----------------||
|-11-----11---------------------|-----------------||
|-----12------------------------|-------------9\--||
|-------------------------------|-------------7\--||
|-------------------------------|-----------------||


 Verse
  Gtr III
  PM|   PM  PM|                     PM
  E E E E E E E E   +E  E E E +E  E E E
|-----------------|---------------------|
|-----------------|---------------------|
|-----------------|---------------------|
|-----5---4-----7-|-(7)-5-4-5-(5)-4---0-|
|-----7---5-----4-|-(4)-4-4-3-(3)-3-3---|
|-0-0---0---0-0---|---------------------|


  PM----|                            ~~~
  S S S S E S S E E E E   +E  E E E +H
|-----------------------|------------------|
|-----------------------|------------------|
|-----------------------|---------5-(5)----|
|---------5-----4-----7-|-(7)-5-4-5-(5)----|
|---------7-----5-----4-|-(4)-4-4-3-(3)----|
|-0-0-0-0---0-0---0-0---|------------------|


  PM|   PM  PM|
  E E E E E E E E   +E  E E E +E  E E E
|-----------------|---------------------|
|-----------------|---------------------|
|-----------------|---------------------|
|-----5---4-----7-|-(7)-5-4-5-(5)-4-2-0-|
|-----7---5-----4-|-(4)-4-4-3-(3)-3-3---|
|-0-0---0---0-0---|---------------------|


  PM--------------------|                ~~~     PM|   PM  PM--|
  E S S E S S E S S S S E   S S E S S E +H       E E E E E E E E
|-------------------------|--------------------|-----------------|
|-------------------------|--------------------|-----------------|
|-------------------------|-----------5-(5)----|-----------------|
|-------------------------|-----------5-(5)----|-----5---4-------|
|-------------------------|-----------3-(3)----|-----7---5-----4-|
|-0-0-0-0-0-0-0-0-0-0-0-0-|-0-0-0-0-0----------|-0-0---0---0-0---|


  Gtr II
  W                 W
|-----------------|-----------------|
|-----------------|-----------------|
|-----------------|-----------------|
|-----------------|-----------------|
|-----------------|-----------------|
|-----------------|-----------------|
|
| Gtr III
| PM----------|     PM|   PM  PM|
| E E E E E E E E   E E E E E E E E
|-----------------|-----------------|
|-----------------|-----------------|
|-----------------|-----------------|
|---5-4-5-5-4-----|-----5---4-----7-|
|-4-----------7-5-|-----7---5-----4-|
|-----------------|-0-0---0---0-0---|


            |------6------| |--3--|
   H        S  S  S S  S  S S  S  S  T  T  T  T    E  E  Q   H
|--------------------------------------------10s|=12-(0)---------------|
|-----------------------------------10h12h13----|----------------------|
|---------------------------9h11h12-------------|----------------------|
|-------------------9h10h12---------------------|----------------------|
|-----------9h10h12-----------------------------|----------------------|
|-----------------------------------------------|----------------------|
|
|                                                  PM|     PM  PM|
| +E  E E E E       E       E        E             E  E  E E E E E E
|-----------------------------------------------|----------------------|
|-----------------------------------------------|----------------------|
|-----------------------------------------------|----------------------|
|-(7)-5-4-5-------------------------------------|--------5---4-----7---|
|-(4)-4-4-3-3-------3-------3--------3----------|--------7---5-----4---|
|-----------------------------------------------|--0--0----0---0-0-----|


  Gtr III
                    PM|   PM  PM|
  E E E E E E E E   E E E E E E E E   E E E E +E  E E E
|-----------------|-----------------|-------------------|
|-----------------|-----------------|-------------5-----|
|-----------------|-----------------|-------5-(5)---5---|
|-----------------|-----5---4-------|-7-5-4-----------5-|
|-4-4-4-3-3-3-3-5-|-----7---5-----4-|-------------------|
|-----------------|-0-0---0---0-0---|-------------------|


  PM|   PM  PM|                       PM|   PM  PM|
  E E E E E E E E   E E E E E E E E   E E E E E E E E
|-----------------|-----------------|------------------|
|-----------------|-----------------|------------------|
|-----------------|-----------------|------------------|
|-----5---4-------|-----------------|-----5---4-----7--|
|-----7---5-----4-|-4-4-4-3-3-3-3-3-|-----7---5-----4--|
|-0-0---0---0-0---|-----------------|-0-0---0---0-0----|


  Gtr II
         |------6------| |--3--|
  H      S  S  S S  S  S S  S  S  T  T  T  T    E E Q   H
|-----------------------------------------10s|=12---------------|
|--------------------------------10h12h13----|------------------|
|------------------------9h11h12-------------|------------------|
|----------------9h10h12---------------------|------------------|
|--------9h10h12-----------------------------|------------------|
|--------------------------------------------|------------------|
|
| Gtr III
|                                               PM|   PM  PM|
| Q  E E E       E       E        E             E E E E E E E E
|--------------------------------------------|------------------|
|--------------------------------------------|------------------|
|--------------------------------------------|------------------|
|-7--7---------------------------------------|------5---4-------|
|-4--4-3-3-------3-------3--------3----------|------7---5-----4-|
|--------------------------------------------|--0-0---0---0-0---|


  W                 W                  W
|-----------------|-----------------|------------------||
|-----------------|-----------------|------------------||
|-----------------|-----------------|------------------||
|-----------------|-----------------|------------------||
|-----------------|-----------------|------------------||
|-----------------|-----------------|------------------||
|
|                   PM|   PM  PM|
| E E E E E E E E   E E E E E E E E   +E  E E E  H
|-----------------|-----------------|------------x\----||
|-----------------|-----------------|------------x\----||
|-----------------|-----------------|------------x\----||
|---5-4-5-5-4-2-0-|-----5---4-----7-|-(7)-5-4-5-(5)----||
|-4---------------|-----7---5-----4-|-(4)-4-4-3-(3)----||
|-----------------|-0-0---0---0-0---|------------------||


 Chorus
  Gtr III
                               PM--|
  Q.   E  Q.   E   +Q.   E +E  E E E   Q.   E +Q.    E
|----------------|-------------------|------------------|
|----------------|-------------------|------------------|
|----------------|-------------------|------------------|
|-5----5-(5)---7-|-(7)---2-(2)-------|-5----5-(5)----7--|
|-2----2--3----5-|-(5)---0-(0)-0-0-0-|-2----3-(3)----5--|
|----------------|-------------------|--------------(5)-|


              PM--|
  +Q.   E +E  E E E   Q.   E +Q.   E   +Q.   E +Q   Q
|-------------------|----------------|------------------|
|-------------------|----------------|------------------|
|-------------------|----------------|------------------|
|-(7)---5-(5)-------|-5----5-(5)-----|-------7-(7)------|
|-(5)---3-(3)-2-0---|-2----3-(3)---4-|-(4)---5-(5)--6---|
|-(5)-------------3-|----------------|------------------|


  PM|   PM  PM|
  E E E E E E E E   +E  E E E +E  E E E
|-----------------|---------------------|
|-----------------|---------------------|
|-----------------|---------------------|
|-----5---7-----7-|-(7)-5-4-5-(5)-4-2-0-|
|-----7---9-----4-|-(4)-4-4-3-(3)-------|
|-0-0---0---0-0---|---------------------|


  PM|     PM  PM|                ~~~
  E E E S S E E E E   +E  E E E +H
|-------------------|------------------||
|-------------------|------------------||
|-------------------|---------5-(5)----||
|-----5-----4-----7-|-(7)-5-4-5-(5)----||
|-----7-----5-----4-|-(4)-4-4-3-(3)----||
|-0-0---0-0---0-0---|------------------||


 Verse
  PM|   PM  PM|                       PM|   PM  PM|
  E E E E E E E E   E E E E E E E E   E E E E E E E E   E E E E E E E E
|-----------------|-----------------|-----------------|------------------|
|-----------------|-----------------|-----------------|------------------|
|-----------------|-----------------|-----------------|------------------|
|-----5---4-----7-|-7-7-7-5-5-5-5-5-|-----5---4-----7-|-7-7-7-----5-4----|
|-----7---5-----4-|-4-4-4-3-3-3-3-3-|-----7---5-----4-|-4-4-4-3-7-----7--|
|-0-0---0---0-0---|-----------------|-0-0---0---0-0---|------------------|


  PM|   PM  PM|                       PM|   PM  PM|
  E E E E E E E E   E E E E E E E E   E E E E E E E E   +E  E E E +E  E E E
|-----------------|-----------------|-----------------|----------------------||
|-----------------|-----------------|-----------------|----------------------||
|-----------------|-----------------|-----------------|----------------------||
|-----5---4-------|-7-5-4---5-4-----|-----5---4-----7-|-(7)-5-4-5-(5)-4------||
|-----7---5-----4-|-------3-----7-5-|-----7---5-----4-|-(4)-----3-(3)---7-5--||
|-0-0---0---0-0---|-----------------|-0-0---0---0-0---|----------------------||


 Chorus
                            PM--|
  Q.   H    E   +Q.   E +E  E E E   Q.   E +Q.    E
|-------------|-------------------|------------------|
|-------------|-------------------|------------------|
|-------------|-------------------|------------------|
|-5----5----7-|-(7)---2-(2)-------|-5----5-(5)----7--|
|-2----3----5-|-(5)---0-(0)-0-0-0-|-2----3-(3)----5--|
|-------------|-------------------|--------------(5)-|


              PM--|
  +Q.   E +E  E E E   Q.   E +Q.   E   +Q.   E +Q   Q
|-------------------|----------------|------------------|
|-------------------|----------------|------------------|
|-------------------|----------------|------------------|
|-(7)---5-(5)-------|-5----5-(5)-----|-------7-(7)------|
|-(5)---3-(3)-2-0---|-2----3-(3)---4-|-(4)---5-(5)--6---|
|-(5)-------------3-|----------------|------------------|


  PM|   PM  PM|
  E E E E E E E E   +E  E E E +E  E E E
|-----------------|---------------------|
|-----------------|---------------------|
|-----------------|---------------------|
|-----5---7-----7-|-(7)-5-4-5-(5)-4-2-0-|
|-----7---9-----4-|-(4)-4-4-3-(3)-------|
|-0-0---0---0-0---|---------------------|


  PM|     PM  PM|                ~~~
  E E E S S E E E E   +E  E E E +H
|-------------------|------------------||
|-------------------|------------------||
|-------------------|---------5-(5)----||
|-----5-----4-----7-|-(7)-5-4-5-(5)----||
|-----7-----5-----4-|-(4)-4-4-3-(3)----||
|-0-0---0-0---0-0---|------------------||


   Bridge
                    ~~
    Q.   E Q  E E   Q.   E Q  E E   Q.   E Q  E E   Q.   Q  Q.
||----------------|---------------|---------------|---------------||
||o---------------|---------------|---------------|---------3----o||
||----------------|---------------|---------------|---------2-----||
||----------------|---------------|---------------|---------0-----||
||o-5-----------5-|-------------5-|-3-----------3-|-2-------0----o||
||--3-----------3-|-2-----------2-|-1-----------1-|-0-------------||


 Guitar Solo
  C5          Bb7/E
  Gtr I
   W           W
   |           |
   /           /

  Gtr II
   ~~
   W           S  S  S S  S  S  S  S  S  S  S  S  S  S  E
|-----------|-21p18------------------18p15----12h15----15-|
|-17--------|-------20---17-20p17----------17-------14----|
|-----------|---------------------18----------------------|
|-----------|---------------------------------------------|
|-----------|---------------------------------------------|
|-----------|---------------------------------------------|


  Bsus4        B        C#sus4           C#
   H           Q.   E    Q.              E H
   |           |         |               | |
   /           /         /               / /

   S   S  H.        E    S  S  S  S  +H        E      +E
|---------------------|-17p16p14-16-(16)------17b19==(17)--|
|-----17-19-----------|------------------------------------|
|-(0)---------------0-|------------------------------------|
|---------------------|------------------------------------|
|---------------------|------------------------------------|
|---------------------|------------------------------------|


  F#m                      E/AbIV
    W                        W
    |                        |
    /                        /

   +Q      E  E  H          +E   S  S  S  S  S  S  S  S  S  S  E  E
|-(17)r---17-16-14-------|-(14)-16p14----14-17-14----14-19-14-21-21b24r|
|------------------------|------------18----------18-------------------|
|------------------------|---------------------------------------------|
|------------------------|---------------------------------------------|
|------------------------|---------------------------------------------|
|------------------------|---------------------------------------------|
|
| Gtr III
|   E   E  E  E  E E E E     E   E     E     E     E     E     E  E
|------------------------|---------------------------------------------|
|------------------------|---------------------------------------------|
|------------------------|---------------------------------------------|
|------------------------|---------------------------------------------|
|---4---4--4--4--4-4-4-4-|---4---4-----4-----4-----4-----4-----4--4----|
|---2---2--2--2--2-2-2-2-|---2---2-----2-----2-----2-----2-----2--2----|


  F#m/A                                E/AbIV
    W                                   W
    |                                   |
    /                                   /

    ~~~~                                      ~~~~~~~
                       |--3--|
   +H         E  S  S  S  S  S  S  S    S  S  E  +Q     +Q     Q
|-(21)-------------13-16-17-14-------|---------------------------------|
|------------21S14-------------14----|---------------------------------|
|---------------------------------14s|=13------------------------------|
|------------------------------------|----16-14-(14)---(14)---14b16----|
|------------------------------------|---------------------------------|
|------------------------------------|---------------------------------|
|
|   E  E E E  E  E     E        E       E     E   E  E   E  E  E    E
|------------------------------------|---------------------------------|
|------------------------------------|---------------------------------|
|------------------------------------|---------------------------------|
|------------------------------------|---------------------------------|
|---4--4-4-4--4--4-----4--------4----|--4-----4---4--4---4--4--4----4--|
|---2--2-2-2--2--2-----2--------2----|--2-----2---2--2---2--2--2----2--|


  F#m
  W
  |
  /

       |-3--|        |------6-------|  |------6-------|
  E  E S  S S  S  S  S  S  S  S  S  S  S  S  S  S  S  S
|------9h13p9-------------------------------------------|
|-------------14p12----12h14p12----12h14p12-------------|
|-------------------14----------14----------14p13-14p13-|
|---11--------------------------------------------------|
|-9-----------------------------------------------------|
|-------------------------------------------------------|
|
| E  E E       E     E        E        E        E
|-------------------------------------------------------|
|-------------------------------------------------------|
|-------------------------------------------------------|
|-------------------------------------------------------|
|-4--4-4-------4-----4--------4--------4--------4-------|
|-2--2-2-------2-----2--------2--------2--------2-------|


  E/AbIV
   W
   |
   /

                           ~~~~~
   S  S  S  S      +Q     +H
|------------------------------------|
|------------------------------------|
|------------------------------------|
|-16-14-16-14b16==(14)---(14)r-------|
|------------------------------------|
|------------------------------------|
|
|  E     E          E  E   E   E E E
|------------------------------------|
|------------------------------------|
|------------------------------------|
|------------------------------------|
|--4-----4----------4--4---4---4-4-4-|
|--2-----2----------2--2---2---2-2-2-|


  F#m/A
   W
   |
   /

         |--3--|  |------6-------|  |------6-------|  |------6-------|
   S  S  S  S  S  S  S  S  S  S  S  S  S  S  S  S  S  S  S  S  S  S  S
|----------------------------------12-------12-14----12-14-16-12-14-16-|
|-12-------12-14-12-14-15-12-14-15----14-15-------15-------------------|
|----13-14-------------------------------------------------------------|
|----------------------------------------------------------------------|
|----------------------------------------------------------------------|
|----------------------------------------------------------------------|
|
|  E     E        E        E        E        E        E        E
|----------------------------------------------------------------------|
|----------------------------------------------------------------------|
|----------------------------------------------------------------------|
|----------------------------------------------------------------------|
|--4-----4--------4--------4--------4--------4--------4--------4-------|
|--2-----2--------2--------2--------2--------2--------2--------2-------|


  E/AbIV
   W
   |
   /

   |------6-------|  |------6-------|  |--3--|
   S  S  S  S  S  S  S  S  S  S  S  S  S  S  S  S  S  S  S  S  S
|-17-14-16-17-19-16-17-19-21p19-17-16-19-17-15-16-14-13-16-14-13--|
|-----------------------------------------------------------------|
|-----------------------------------------------------------------|
|-----------------------------------------------------------------|
|-----------------------------------------------------------------|
|-----------------------------------------------------------------|
|
|  E        E        E        E        E        E     E     E
|-----------------------------------------------------------------|
|-----------------------------------------------------------------|
|-----------------------------------------------------------------|
|-----------------------------------------------------------------|
|--4--------4--------4--------4--------4--------4-----4-----4-----|
|--2--------2--------2--------2--------2--------2-----2-----2-----|


  F#m
   W
   |
   /

   |---------7---------|  |-------7--------|
   S  S  S  S    S  S  S  S  S S  S    S S S  S E    S      +Q
|-----------------------------------------------------------------|
|-15p14p12--------------------------------------------------------|
|----------14p==13p11p10----------------------------11b13==(11)---|
|------------------------12p11p9----------------------------------|
|--------------------------------12p==11p9p8-11-x-----------------|
|-----------------------------------------------------------------|
|
|  E          E           E         E         E   E          E  E
|-----------------------------------------------------------------|
|-----------------------------------------------------------------|
|-----------------------------------------------------------------|
|-----------------------------------------------------------------|
|--4----------4-----------4---------4---------4---4----------4--4-|
|--2----------2-----------2---------2---------2---2----------2--2-|


  E/AbIV
    W
    |
    /

                                          |--3---|
   +E   +E   E      E      E      E      +S   S  S  S  S
|--------------------------------------------------------|
|--------------------------------------------------------|
|-(11)r(11)-11pb13-11pb12-11pb12-11pb13r(11)p10h11-10----|
|-----------------------------------------------------12-|
|--------------------------------------------------------|
|--------------------------------------------------------|
|
|   E    E   E      E      E      E       E         E
|--------------------------------------------------------|
|--------------------------------------------------------|
|--------------------------------------------------------|
|--------------------------------------------------------|
|---4----4---4------4------4------4-------4---------4----|
|---2----2---2------2------2------2-------2---------2----|


  F#m/A
   W
   |
   /

   |-3--|             |-3--|  |-----6------| |-3-|
   S  S S  S  S  S S  S  S S  S  S S  S  S S S S S  T  T  T  T
|--------------------------------------------------------------|
|--------------------------------------------------------------|
|---------10---------------------------------------------------|
|-12p11p9----12p11p9-12p11p9-----------------------------------|
|----------------------------12p11p9-12-11-9-8h9p8-11h12p11h12-|
|--------------------------------------------------------------|
|
|  E       E     E    E       E       E      E      E
|--------------------------------------------------------------|
|--------------------------------------------------------------|
|--------------------------------------------------------------|
|--------------------------------------------------------------|
|--4-------4-----4----4-------4-------4------4------4----------|
|--2-------2-----2----2-------2-------2------2------2----------|


  E/AbIV
   W
   |
   /

   |------3------|  |--3---| |-----3------|
   S  S  E    S  S  E S  S E S  S E    S  S  E  E
|----------------------------9h10p9---13h14p13-16--|
|---------------------9h10p9-----------------------|
|------------10h11p10------------------------------|
|-11h12p11-----------------------------------------|
|--------------------------------------------------|
|--------------------------------------------------|
|
|  E       E        E    E   E      E        E  E
|--------------------------------------------------|
|--------------------------------------------------|
|--------------------------------------------------|
|--------------------------------------------------|
|--4-------4--------4----4---4------4--------4--4--|
|--2-------2--------2----2---2------2--------2--2--|


  F#m                     E/AbIV
   W                        W
   |                        |
   /                        /

   ~~~
   H.            Q         +E   Q.      +E   S      +S   +E   E
|-16------------16b19r==|=(16)-17------(17)-16b18==(16)r(16)-14-|
|-----------------------|---------------------------------------|
|-----------------------|---------------------------------------|
|-----------------------|---------------------------------------|
|-----------------------|---------------------------------------|
|-----------------------|---------------------------------------|
|
|  E  E E E E E  E    E     E   E  E E   E   E            E   E
|-----------------------|---------------------------------------|
|-----------------------|---------------------------------------|
|-----------------------|---------------------------------------|
|-----------------------|---------------------------------------|
|--4--4-4-4-4-4--4----4-|---4---4--4-4---4---4------------4---4-|
|--2--2-2-2-2-2--2----2-|---2---2--2-2---2---2------------2---2-|


  F#m/A
   W
   |
   /

   |------6-------|  |---------7---------|  |------6-------|  |------6-------|
   S  S  S  S  S  S  S  S  S  S    S  S  S  S  S  S  S  S  S  S  S  S  S  S  S
|-17-16-14-13-14-16-16-17-16-14---13-14-16-17-14-16-17-16-14-19-16-17-19-17-16--|
|-------------------------------------------------------------------------------|
|-------------------------------------------------------------------------------|
|-------------------------------------------------------------------------------|
|-------------------------------------------------------------------------------|
|-------------------------------------------------------------------------------|
|
|  E        E        E          E           E        E        E        E
|-------------------------------------------------------------------------------|
|-------------------------------------------------------------------------------|
|-------------------------------------------------------------------------------|
|-------------------------------------------------------------------------------|
|--4--------4--------4----------4-----------4--------4--------4--------4--------|
|--2--------2--------2----------2-----------2--------2--------2--------2--------|


  E/AbIV                     F#m
   W                          W
   |                          |
   /                          /

   TP        TP                            ~~~~~~~~~~
                                                        |------5------|
   Q        +H.               E      +E   +Q     +Q     S  S  S    S  S
|-21b22====(21)r-----------|-21b22==(21)r(21)---(21)---21p17------19p16-|
|--------------------------|---------------------------------19---------|
|--------------------------|--------------------------------------------|
|--------------------------|--------------------------------------------|
|--------------------------|--------------------------------------------|
|--------------------------|--------------------------------------------|
|
|  E     E   E   E E E E E    E       E    E  E   E  E  E       E
|--------------------------|--------------------------------------------|
|--------------------------|--------------------------------------------|
|--------------------------|--------------------------------------------|
|--------------------------|--------------------------------------------|
|--4-----4---4---4-4-4-4-4-|--4-------4----4--4---4--4--4-------4-------|
|--2-----2---2---2-2-2-2-2-|--2-------2----2--2---2--2--2-------2-------|


  E/AbIV
   W
   |
   /

   |------5------|  |------6-------|                       |--3--|
   S  S  S    S  S  S  S  S  S  S  S  T  T  T  T  T  T  S  S  S  S  S  S
|----17p14------16-12----16p14-10----12h14p12----12----------------------|
|-17---------14-------12----------10----------15----15p14-15p14p12----12-|
|------------------------------------------------------------------14----|
|------------------------------------------------------------------------|
|------------------------------------------------------------------------|
|------------------------------------------------------------------------|
|
|  E       E        E        E        E           E        E        E
|------------------------------------------------------------------------|
|------------------------------------------------------------------------|
|------------------------------------------------------------------------|
|------------------------------------------------------------------------|
|--4-------4--------4--------4--------4-----------4--------4--------4----|
|--2-------2--------2--------2--------2-----------2--------2--------2----|


  F#m
   W
   |
   /

         ~~~~~~~
                                           |--3--|
   S  S  E  +Q     T  T  T  T  T  T  S  E  S  S  S
|--------------------------13-16-17-14-------------|
|-----------------------14-------------14----------|
|-14p13--------------14-------------------17s16p14-|
|-------16-(16)---16-------------------------------|
|--------------------------------------------------|
|--------------------------------------------------|
|
|  E     E   E  E  E           E        E  E
|--------------------------------------------------|
|--------------------------------------------------|
|--------------------------------------------------|
|--------------------------------------------------|
|--4-----4---4--4--4-----------4--------4--4-------|
|--2-----2---2--2--2-----------2--------2--2-------|


  E/AbIV                           F#m/A
   W                                W
   |                                |
   /                                /

                                                         |--3---|
   E  Q        +H         +S   S    S  S  Q.      +Q     E  E   E
|--------------------------------|--------------------------------|
|--------------------------------|------------------------------9-|
|-13S14b16====(14)r======(14)p13-|-14p13-------------------11-----|
|--------------------------------|-------16------(16)---11--------|
|--------------------------------|--------------------------------|
|--------------------------------|--------------------------------|
|
|  E  E     E   E  E E E   E        E     E  E E   E  E  E    E
|--------------------------------|--------------------------------|
|--------------------------------|--------------------------------|
|--------------------------------|--------------------------------|
|--------------------------------|--------------------------------|
|--4--4-----4---4--4-4-4---4-----|--4-----4--4-4---4--4--4----4---|
|--2--2-----2---2--2-2-2---2-----|--2-----2--2-2---2--2--2----2---|


  E/AbIV                      F#m
   W                           W
   |                           |
   /                           /

   |--3---|                    |-----5-----|
   E  E   E +Q    E E   E E    S  S S    S S  H.
|---------------------------|------------------------------|
|-10------9-(9)-----------9-|-10-12-9h==10p9---------------|
|----11---------------/11---|----------------11------------|
|---------------------------|------------------------------|
|-----------------0-x-------|------------------------------|
|---------------------------|------------------------------|
|
|  E    E    E  E E E   E E    E      E       E  E E E E E
|---------------------------|------------------------------|
|---------------------------|------------------------------|
|---------------------------|------------------------------|
|---------------------------|------------------------------|
|--4----4----4--4-4-4---4-4-|--4------4-------4--4-4-4-4-4-|
|--2----2----2--2-2-2---2-2-|--2------2-------2--2-2-2-2-2-|


  E/AbIV                      Bsus4     B
   W                           Q.       E +H
   |                           |        |  |
   /                           /        /  /

               ~~~
   S  S  S  S  H.              W
|-17h19p17s16---------------|-17b19----------------||
|-------------19------------|----------------------||
|---------------------------|----------------------||
|---------------------------|----------------------||
|---------------------------|----------------------||
|---------------------------|----------------------||
|
|  E     E     E  E E E E E    E    E E E  E E E E
|---------------------------|----------------------||
|---------------------------|----------------------||
|---------------------------|----------------------||
|---------------------------|----------------------||
|--4-----4-----4--4-4-4-4-4-|--4----4-4-4--4-4-4-4-||
|--2-----2-----2--2-2-2-2-2-|--2----2-2-2--2-2-2-2-||


   Bridge
    F#m               E/AbIV            F#m/A             E/AbIV
    Gtr I
    W                 W                 W                 W
    |                 |                 |                 |
    /                 /                 /                 /

    Gtr III
    E E E E E E E E   E E E E E E E E   E E E E E E E E   E E E E E E E E
||------------------|-----------------|-----------------|------------------||
||o-----------------|-----------------|-----------------|-----------------o||
||------------------|-----------------|-----------------|------------------||
||------------------|-----------------|-----------------|------------------||
||o-4-4-4-4-4-4-4-4-|-4-4-4-4-4-4-4-4-|-4-4-4-4-4-4-4-4-|-4-4-4-4-4-4-4-4-o||
||--2-2-2-2-2-2-2-2-|-2-2-2-2-2-2-2-2-|-2-2-2-2-2-2-2-2-|-2-2-2-2-2-2-2-2--||


  Gtr II
  W          W                   Q  S    +S  +E  H      W
|----------|-------------------|-----------------7----|------|
|----------|-------------------|----------------------|------|
|----------|-------------------|----------------------|------|
|----------|-------------------|----4b5==(4)r(4)------|------|
|----------|-------------------|----------------------|------|
|----------|-------------------|----------------------|------|
|
| Gtr III
| ~
| W          E E E E +E  E E E   W                      W
|----------|-------------------|----------------------|------|
|-5--------|-------8-(8)-------|-5--------------------|-4----|
|-5--------|-----6-------6-----|-4--------------------|-4----|
|-5--------|---8-----------8---|-4--------------------|-4----|
|-3--------|-7---------------7-|-2--------------------|-2----|
|-3--------|-------------------|----------------------|------|


    F#m               E/AbIV            F#m/A             E/AbIV
    Gtr I
    W                 W                 W                 W
    |                 |                 |                 |
    /                 /                 /                 /

    Gtr III
    E E E E E E E E   E E E E E E E E   E E E E E E E E   E E E E E E E E
||------------------|-----------------|-----------------|------------------||
||o-----------------|-----------------|-----------------|-----------------o||
||------------------|-----------------|-----------------|------------------||
||------------------|-----------------|-----------------|------------------||
||o-4-4-4-4-4-4-4-4-|-4-4-4-4-4-4-4-4-|-4-4-4-4-4-4-4-4-|-4-4-4-4-4-4-4-4-o||
||--2-2-2-2-2-2-2-2-|-2-2-2-2-2-2-2-2-|-2-2-2-2-2-2-2-2-|-2-2-2-2-2-2-2-2--||


 Out-Chorus
                            PM--|
  Q.   H    E   +Q.   E +E  E E E   Q.   E +Q.    E
|-------------|-------------------|------------------|
|-------------|-------------------|------------------|
|-------------|-------------------|------------------|
|-5----5----7-|-(7)---2-(2)-------|-5----5-(5)----7--|
|-2----3----5-|-(5)---0-(0)-0-0-0-|-2----3-(3)----5--|
|-------------|-------------------|--------------(5)-|


              PM--|
  +Q.   E +E  E E E   Q.   E +Q.   E   +Q.   E +Q   Q
|-------------------|----------------|------------------|
|-------------------|----------------|------------------|
|-------------------|----------------|------------------|
|-(7)---5-(5)-------|-5----5-(5)-----|-------7-(7)------|
|-(5)---3-(3)-2-0---|-2----3-(3)---4-|-(4)---5-(5)--6---|
|-(5)-------------3-|----------------|------------------|


  PM|   PM  PM|
  E E E E E E E E   +E  E E E +E  E E E
|-----------------|---------------------|
|-----------------|---------------------|
|-----------------|---------------------|
|-----5---7-----7-|-(7)-5-4-5-(5)-4-2-0-|
|-----7---9-----4-|-(4)-4-4-3-(3)-------|
|-0-0---0---0-0---|---------------------|


  PM|     PM  PM|
  E E E S S E E E E   +E  E E E +H
|-------------------|------------------*|
|-------------------|------------------*|
|-------------------|---------5-(5)----*|
|-----5-----4-----7-|-(7)-5-4-5-(5)----*|
|-----7-----5-----4-|-(4)-4-4-3-(3)----*|
|-0-0---0-0---0-0---|------------------*|



Duration Legend
---------------
W - whole; H - half; Q - quarter; E - 8th; S - 16th; T - 32nd; X - 64th; a - acciaccatura
+ - note tied to previous; . - note dotted; .. - note double dotted
Uncapitalized letters represent notes that are staccato (1/2 duration)
Irregular groupings are notated above the duration line
Duration letters will always appear directly above the note/fret number it represents the
duration for.  Duration letters with no fret number below them represent rests.  Multi-
bar rests are notated in the form Wxn, where n is the number of bars to rest for.  Low
melody durations appear below the staff

Tablature Legend
----------------
 h   - hammer-on
 p   - pull-off
 b   - bend
 pb  - pre-bend
 r   - bend release (if no number after the r, then release immediately)
 /\  - slide into or out of (from/to "nowhere")
 s   - legato slide
 S   - shift slide
 - natural harmonic
[n]  - artificial harmonic
n(n) - tapped harmonic
 ~   - vibrato
 tr  - trill
 T   - tap
 TP  - trem. picking
 PM  - palm muting
\n/  - tremolo bar dip; n = amount to dip
 \n  - tremolo bar down
 n/  - tremolo bar up
/n\  - tremolo bar inverted dip
 =   - hold bend; also acts as connecting device for hammers/pulls
 <> - volume swell (louder/softer)
 x   - on rhythm slash represents muted slash
 o   - on rhythm slash represents single note slash

Misc Legend
-----------
 |  - bar
||  - double bar
||o - repeat start
o|| - repeat end
*|  - double bar (ending)
 :  - bar (freetime)
 $  - Segno
 &  - Coda
Tempo markers -  = BPM(8/16=s8/s16), where s8 = swing 8ths, s16 = swing 16ths

Related for Crystal Ball tab