Guitaretab - guitar tabs
Song name
# A B C D E F G H I J K L M N O P Q R S T U V W X Y Z

Malmsteen Yngwie - Dreamin tab

-------------------------------------------------------------------------------
			     DREAMIN’ - Weezer
-------------------------------------------------------------------------------
Tabbed by: Wooba
Email:  Woobaguy@aol.com

Tuning: Standard - Drop D

Chorus
e|----------------------------------------------------------------|
B|----------------------------------------------------------------|
G|----------------------------------------------------------------|  x4
D|-0--0-0--4--4-4--5--5-5--7--7-7--0--0-0--4--4-4--5--5-5--7--7-7-|	
A|-0--0-0--4--4-4--5--5-5--7--7-7--0--0-0--4--4-4--5--5-5--7--7-7-| 	
D|-0--0-0--4--4-4--5--5-5--7--7-7--0--0-0--4--4-4--5--5-5--7--7-7-|


Verse 1
e|------------------------------------------------|
B|------------------------------------------------|
G|-4-4-4--4-4-------------------------------------|   x2
D|-4-4-4--4-4--4-4-4--4-4--5-5-5--5-5--0-0-0--0-0-|
A|-2-2-2--2-2--4-4-4--4-4--5-5-5--5-5--0-0-0--0-0-|
D|-------------4-4-4--4-4--5-5-5--5-5--0-0-0--0-0-|


Verse 2
e|------------------------------------------------|
B|------------------------------------------------|
G|-4-4-4--4-4-------------------------------------|
D|-4-4-4--4-4--4-4-4--4-4--5-5-5--5-5--0-0-0--0-0-|
A|-2-2-2--2-2--4-4-4--4-4--5-5-5--5-5--0-0-0--0-0-|
D|-------------4-4-4--4-4--5-5-5--5-5--0-0-0--0-0-|

e|------------------------------------------------|
B|------------------------------------------------|
G|-4-4-4--4-4-------------------------------------|
D|-4-4-4--4-4--4-4-4--4-4--2-2-2--2-2--7-7-7--7-7-|
A|-2-2-2--2-2--4-4-4--4-4--2-2-2--2-2--7-7-7--7-7-|
D|-------------4-4-4--4-4--2-2-2--2-2--7-7-7--7-7-|

Bridge
e|---------------------------------------------|
B|---------------------------------------------|
G|-7-7-7--5--5-5--7-7-7--5--5-5--7-7-7--5--5-5-|
D|-7-7-7--5--5-5--7-7-7--5--5-5--7-7-7--5--5-5-|
A|-5-5-5--3--3-3--5-5-5--3--3-3--5-5-5--3--3-3-|
D|---------------------------------------------|

e|----------------|
B|----------------|                                    x2
G|-4--4-4--3--3-3-|
D|-4--4-4--3--3-3-|
A|-2--2-2--1--1-1-|
D|----------------|

2:05 - 2:21
e|------------------------|
B|------------------------|                                       
G|------------------------|
D|-0--0--0--0--0--0--0--0-| (Gradually Slower)
A|-0--0--0--0--0--0--0--0-|
D|-0--0--0--0--0--0--0--0-|

Interlude
e|-----------------------------------------------------------------|
B|-----------------------------------------------------------------|
G|-----------------------------------------------------------------|  x2
D|---7---7---7---7---7---7---7---7---5---5---5---5---4---4---4---4-|
A|-5---5---5---5---4---4---4---4---2---2---2---2---0---0---0---0---|
D|-----------------------------------------------------------------|
[ Tab from: http://www.guitaretab.com/m/malmsteen-yngwie/10990.html ]
Little Riff In Between
e|----------------------------------------------------|
B|----------------------------------------------------|                                       
G|----------------------------------------------------|
D|-3-3--0--0-0--3-3--0--0-0--3-3--5-5-5--7-7-7-7-7-7-7| 
A|-3-3--0--0-0--3-3--0--0-0--3-3--5-5-5--7-7-7-7-7-7-7|
D|-3-3--0--0-0--3-3--0--0-0--3-3--5-5-5--7-7-7-7-7-7-7| 

Interlude 2
e|----------------------------------------------------------------------|
B|----------------------------------------------------------------------|
G|----------------------------------------------------------------------| 
D|---7---7---7---7---9---9---9---9---11---11---11----12---12----12---12-|
A|-5---5---5---5---7---7---7---7---9----9----9----10---10----10---10----|
D|----------------------------------------------------------------------|

"Why am I so glad..."
e|---------------------------------|
B|---------------------------------|
G|-7-7-7-7-7-7-7-7-7-7-7-7-7-7-7-7-|  x2
D|-7-7-7-7-7-7-7-7-7-7-7-7-7-7-7-7-|
A|-5-5-5-5-5-5-5-5-5-5-5-5-5-5-5-5-|
D|---------------------------------|

"I am running..."
e|-----------------------------------------------------------------|
B|-----------------------------------------------------------------|
G|-----------------------------------------------------------------|  x2
D|-5-5-5-5-5-5-5-5-4-4-4-4-4-4-4-4-2-2-2-2-2-2-2-2-0-0-0-0-0-0-0-0-|
A|-5-5-5-5-5-5-5-5-4-4-4-4-4-4-4-4-2-2-2-2-2-2-2-2-0-0-0-0-0-0-0-0-|
D|-5-5-5-5-5-5-5-5-4-4-4-4-4-4-4-4-2-2-2-2-2-2-2-2-0-0-0-0-0-0-0-0-|

Back to Chorus
e|-----------------------------------------------------------------|
B|-----------------------------------------------------------------|
G|-----------------------------------------------------------------|  x4
D|-0-0-0-0-4-4-4-4-5-5-5-5-7-7-7-7-0-0-0-0-4-4-4-4-5-5-5-5-7-7-7-7-|
A|-0-0-0-0-4-4-4-4-5-5-5-5-7-7-7-7-0-0-0-0-4-4-4-4-5-5-5-5-7-7-7-7-|
D|-0-0-0-0-4-4-4-4-5-5-5-5-7-7-7-7-0-0-0-0-4-4-4-4-5-5-5-5-7-7-7-7-|

e|----------------------------------------------------------|
B|----------------------------------------------------------|
G|----------------------------------------------------------|  
D|-5-5-5--7-7-7--5-5-5--7-7-7--5-5-5--7-7-7--5-5-5--7-7-7-7-|
A|-5-5-5--7-7-7--5-5-5--7-7-7--5-5-5--7-7-7--5-5-5--7-7-7-7-|
D|-5-5-5--7-7-7--5-5-5--7-7-7--5-5-5--7-7-7--5-5-5--7-7-7-7-|

Ending
e|------------------------|
B|------------------------|
G|-------------5--2-2-2-2-|  x3
D|-0--4-4-4-4--5--2-2-2-2-|
A|-0--4-4-4-4--3--0-0-0-0-|
D|-0--4-4-4-4-------------|

e|----------------|
B|----------------|
G|----7-7-5-7-----| 
D|-0--7-7-5-7-0-0-|
A|-0--5-5-3-5-0-0-|
D|-0----------0-0-|


| /  slide up
| \  slide down
| h  hammer-on
| p  pull-off
| ~  vibrato
| +  harmonic
| x  Mute note
===============================================================================


Related for Dreamin tab