Song name
# A B C D E F G H I J K L M N O P Q R S T U V W X Y Z

Malmsteen Yngwie - Faster Than The Speed Of Light tab

#----------------------------------PLEASE NOTE---------------------------------#
#This file is the author's own work and represents their interpretation of the #
#song. You may only use this file for private study, scholarship, or research. #
#------------------------------------------------------------------------------#

FASTER THAN THE SPEED OF LIGHT
As recorded by Yngwie Malmsteen
(From the 1988 Album ODYSSEY)

Transcribed by guitargod175
	

Words and Music by Yngwie Malmsteen

Gtr I (Eb Ab Db Gb Bb Eb) - 'Yngwie'
Gtr II (Eb Ab Db Gb Bb Eb) - 'backing guitar'

 Intro
  Fast Rock Q=250
  N.C.
 4/4
  Gtr I
  H    Q  E E   +E  E E E E E E E   +E  E E E E E E E
|-----------2-|-(2)---------------|-------------------|
|-------------|-----5-4-----------|-----4-------------|
|-------------|---------5-4-2---5-|-(5)---5-4-2-----5-|
|-------------|---------------5---|-------------5-4---|
|-------------|-------------------|-------------------|
|-------------|-------------------|-------------------|
|
| Gtr II
| H    Q  E E   +E  E E E E E E E   +E  E E E E E E E
|-------------|-------------------|-------------------|
|-----------4-|-(4)---------------|-------------------|
|-------------|-----5-4-2-------5-|-(5)-4-2---------2-|
|-------------|-----------5-4-2---|---------5-4-2-1---|
|-------------|-------------------|-------------------|
|-------------|-------------------|-------------------|


  +E  E E E E E E E   +E  E E E E E E E
|-------------------|--------------------|
|-------------------|--------------------|
|-(5)-4-2---------2-|-(2)----------------|
|---------5-4-2-1---|-----5-4-2-1--------|
|-------------------|-------------3-2-0--|
|-------------------|--------------------|
|
| +E  E E E E E E E   +E  E E E E E E E
|-------------------|--------------------|
|-------------------|--------------------|
|-(2)---------------|--------------------|
|-----5-4-2-1-----4-|-(4)-2-1------------|
|-------------3-2---|---------3-2-0------|
|-------------------|---------------3-2--|


  E5           B/Eb    E5 B5/F# G  Am                                     E5
     PM------|                          ~~~~             ~~~~~~~~~~
  Q  E E E E E E   +E  Q  E +E  Q  E   +H..       a E   +H     +E  +E   E E
|----------------|-------------------|----------------|---------------------|
|----------------|-------------------|----------------|---------------------|
|--------------4-|-(4)-4--4-(4)-4--5-|-(5)------------|---------------------|
|-2------------1-|-(1)-2--4-(4)-5--7-|-(7)--------7s9-|-(9)----(9)-(9)\---9-|
|-2--------------|-------------------|----------------|-------------------7-|
|-0--0-0-0-0-0---|-------------------|----------------|-------------------0-|


  E5               B/Eb    E5 B5/F# G  Am             Bb         B           E5
       PM--------|                          ~~~~
  +E   E E E E E E E   +E  Q  E +E  Q  E   +H..        E    +Q    Q   +E  Q  E
|--------------------|-------------------|---------------|---------------------|
|--------------------|-------------------|------------11-|-(11)--12--(12)------|
|------------------4-|-(4)-4--4-(4)-4--5-|-(5)-----------|---------------------|
|-(9)\-------------1-|-(1)-2--4-(4)-5--7-|-(7)---------8-|--(8)---9---(9)----9-|
|-(7)----------------|-------------------|---------------|-------------------7-|
|-(0)----0-0-0-0-0---|-------------------|---------------|-------------------0-|


  E5              B/Eb    E5 B5/F# G
        PM------|
  +E  E E E E E E E   +E  Q  E +E  Q  a E
|-------------------|---------------------|
|-------------------|---------------------|
|-----------------4-|-(4)-4--4-(4)-4------|
|-(9)-------------1-|-(1)-2--4-(4)-5--5h7-|
|-(7)---------------|---------------------|
|-(0)---0-0-0-0-0---|---------------------|


   ~~~
                 |-3-|
  +H.      E E   E E E S S S S S S S S E E
|--------------|---------------------------|
|--------------|---------------------------|
|--------------|---------------------------|
|-(7)--------5h|=9p7p5-9p7p5-9p7-9p7p5-----|
|--------------|-----------------------9-7-|
|--------------|---------------------------|


                  B/Eb    E5 B5/F# G                 F#5        B5
        PM------|                          ~~~
  +E  E E E E E E E   +E  Q  E +E  Q  E   +H.      E E   +Q   E E +E  E Q
|-------------------|-------------------|--------------|-------------------|
|-------------------|-------------------|--------------|-------------------|
|-----------------4-|-(4)-4--4-(4)-4----|--------------|-------------------|
|-----------------1-|-(1)-2--4-(4)-5--7-|-(7)----------|--------4-(4)------|
|-(7)---------------|-------------------|------------4-|-(4)----2-(2)------|
|-------0-0-0-0-0---|-------------------|------------2-|-(2)---------------|


  N.C.
   |--3--|  |--3--|              |--3--|
   E  E  E  E  E  E  S  S  S  S  E  E  E
|-15-12S14-15-17-14-15-17S19-17-14-15-17-|
|----------------------------------------|
|----------------------------------------|
|----------------------------------------|
|----------------------------------------|
|----------------------------------------|


   |--3--|  |--3--|  |--3--|  |-3--|    |-3-|  |-3-| |-3-|
   E  E  E  E  E  E  E  E  E  E E  E    E E E  E E E E E E E. S
|-15-14-12-15-14-12s10-14-12-10s8-12-|-10-8---10-8-7-5--------8--|
|------------------------------------|-----------------8---------|
|------------------------------------|---------------------------|
|------------------------------------|---------------------------|
|------------------------------------|---------------------------|
|------------------------------------|---------------------------|


                                        Verse
                  |----6----|
  S S S S S S S S S S S S S S S S S S    Q  Q  H      Wx2
|-7p5-----7h8p7p5---------------------||------------|--------|
|-----8p6---------8p7p5---------------||------------|--------|
|-----------------------8p7p5-4-------||------------|--------|
|-------------------------------7p5p4-||------------|--------|
|-------------------------------------||-7----------|--------|
|-------------------------------------||------------|--------|


               Em                      Em7
  H    Q  Q    W          +W           E E Q  H
|------------|-0--------|-(0)--------|-------------|
|---------0--|-0--------|-(0)--------|-3-----------|
|------------|-0--------|-(0)--------|-0-----------|
|------------|-2--------|-(2)--------|-2-----------|
|------------|-2--------|-(2)--------|-2-----------|
|------------|-0--------|-(0)--------|-0-----------|


            D#m            Em                 D#m            Em
                                    PM------|
  H    Q  E E   +H.      E E   +Q   E E E E E E   +H.      E E
|-------------|--------------|------------------|--------------|
|-------------|--------------|------------------|--------------|
|-------------|--------------|------------------|--------------|
|-----------4-|-(4)--------5-|-(5)------------4-|-(4)--------5-|
|-----------6-|-(6)--------7-|-(7)------------6-|-(6)--------7-|
|-------------|--------------|------0-0-0-0-0---|------------0-|


                 E7             Am                 Bbm            B
       PM------|                         PM------|
  +Q   E E E E E E   +H.      E E   +Q   E E E E E E   +H.      E E
|------------------|--------------|------------------|--------------|
|------------------|--------------|------------------|--------------|
|----------------7-|-(7)--------5-|-(5)------------6-|-(6)--------8-|
|-(5)------------6-|-(6)--------7-|-(7)------------8-|-(8)--------9-|
|-(7)------------7-|-(7)----------|------0-0-0-0-0---|--------------|
|-(0)--0-0-0-0-0---|--------------|------------------|--------------|


                                  3/4
                |-3--|
  +Q    S S S S E  E E S  S S S    E E Q  Q
|-------------------------------||-----------||
|------10p8p7-------------------||-----------||
|-(8)---------9p8---------------||-----------||
|-(9)-------------10p9p7--------||-----------||
|------------------------10p9p7s||=6---------||
|-------------------------------||-----------||


 Chorus
  Em                             C/G
 4/4
     PM------------------------|
  Q  E E E E E E   E E E E E E E E
|----------------|-----------------|
|----------------|---------------5-|
|----------------|---------------5-|
|-5--------------|---------------5-|
|-7--------------|-----------------|
|----0-0-0-0-0-0-|-0-0-0-0-0-0-0---|


                                       Am                            Esus2/B
       PM--------------------------|      PM-----------------------|
  +Q   E E E E E E   E E E E E E E E   Q  E E E E E E   E E E E Q  E E
|------------------|-----------------|----------------|----------------|
|-(5)--------------|-----------------|-1--------------|--------------5-|
|-(5)--------------|-----------------|-2--------------|--------------4-|
|-(5)--------------|-----------------|-2--------------|--------------4-|
|------------------|-----------------|-0--0-0-0-0-0-0-|-0-0-0-0-0--0-2-|
|------0-0-0-0-0-0-|-0-0-0-0-0-0-0-0-|----------------|----------------|


                 B                  Em                       Em        C
       PM------|          PM----|            PM------------|    PM   PM
  +Q   E E E E E E   +Q   E E E E E E   +Q   E E E E E E   E Q  E Q  E E
|------------------|------------------|------------------|---------------|
|-(5)------------4-|-(4)--------------|------------------|-------------5-|
|-(4)------------4-|-(4)--------------|------------------|-------------5-|
|-(4)------------4-|-(4)------------5-|-(5)--------------|---5----5----5-|
|-(2)--2-2-2-2-2---|------2-2-2-2---7-|-(7)--------------|---7----7------|
|------------------|------------------|------0-0-0-0-0-0-|-0----0----0---|


               C                                                         Bsus4
                                  T            T              T
                           |-3-|  |-3-| |-3-|  |-3-|   |-3-|  |-3-|
  +W           H    H      E E E  E E E E E E  E E E   E E E  E E E Q  E E
|------------|-----------|---------------------------|---------------------|
|-(5)--------|-5----5----|---------------------------|-------------------5-|
|-(5)--------|-5----5----|---------------------------|-------------------4-|
|-(5)--------|-5----5----|---------------------------|-------------------4-|
|------------|-----------|-0h3h7-12p7p3-0h3h7-12p7p3-|-0h3h7-12p7p3-0----2-|
|------------|-----------|---------------------------|---------------------|


       PM------------------------|
  +Q   E E E E E E   E E E E E E E E   +E  E E E E E E E   +E  E E E E E E E
|------------------|-----------------|-------------------|-------------------|
|-(5)--------------|---------------4-|-(4)---------------|-------------------|
|-(4)--------------|-----------------|-----5-4-2-------5-|-(5)-4-2---------4-|
|-(4)--------------|-----------------|-----------5-4-2---|---------5-4-2-1-2-|
|-(2)--2-2-2-2-2-2-|-2-2-2-2-2-2-2---|-------------------|-------------------|
|------------------|-----------------|-------------------|-------------------|
|
| Gtr II
|  W                 H       Q   E E   +E  E E E E E E E   +E  E E E E E E E
|------------------|---------------2-|-(2)---------------|-------------------|
|------------------|-----------------|-----5-4---------5-|-(5)-4-------------|
|------------------|-----------------|---------5-4-2-----|-------5-4-2-------|
|------------------|-----------------|---------------5---|-------------5-4-2-|
|------------------|-----------------|-------------------|-------------------|
|------------------|-----------------|-------------------|-------------------|


                            Verse
                                          Em
  Q  Q  H      Wx2           H    Q  Q    W
|------------|------------||------------|-0----|
|------------|------------||---------0--|-0----|
|------------|------------||------------|-0----|
|-2----------|------------||------------|-2----|
|------------|------------||------------|-2----|
|------------|------------||------------|-0----|


               Em7                     D#m            Em
  +W           E E Q  H      H    Q  E E   +H.      E E
|-(0)--------|-------------|-------------|--------------|
|-(0)--------|-3-----------|-------------|--------------|
|-(0)--------|-0-----------|-------------|--------------|
|-(2)--------|-2-----------|-----------4-|-(4)--------5-|
|-(2)--------|-2-----------|-----------6-|-(6)--------7-|
|-(0)--------|-0-----------|-------------|--------------|


                 D#m            Em                 E7             Am
       PM------|                         PM------|
  +Q   E E E E E E   +H.      E E   +Q   E E E E E E   +H.      E E
|------------------|--------------|------------------|--------------|
|------------------|--------------|------------------|--------------|
|------------------|--------------|----------------7-|-(7)--------5-|
|-(5)------------4-|-(4)--------5-|-(5)------------6-|-(6)--------7-|
|-(7)------------6-|-(6)--------7-|-(7)------------7-|-(7)----------|
|------0-0-0-0-0---|------------0-|-(0)--0-0-0-0-0---|--------------|


                 Bbm            B
       PM------|
  +Q   E E E E E E   +H.      E E
|------------------|--------------|
|------------------|--------------|
|-(5)------------6-|-(6)--------8-|
|-(7)------------8-|-(8)--------9-|
|------0-0-0-0-0---|--------------|
|------------------|--------------|


    |--3--|              |--3--|  |--3--|
    E  E  E  S  S  S  S  E  E  E  E  E  E    Q  Q  H
|-/20p19p17-------------------------------|-------------||
|-----------20p19p17p16-------------------|-------------||
|-----------------------17p16-------------|-------------||
|-----------------------------19p17p16----|-------------||
|--------------------------------------19p|=18----------||
|-----------------------------------------|-------------||


 Chorus
  Em                             C                              C5   A5
     PM------------------------|          PM------------------|
  Q  E E E E E E   E E E E E E E E   +Q   E E E E E E   E E E E Q  E E
|----------------|-----------------|------------------|----------------|
|----------------|---------------5-|-(5)--------------|----------------|
|----------------|---------------5-|-(5)--------------|---------5----2-|
|-5--------------|---------------5-|-(5)--------------|---------5----2-|
|-7--------------|-----------------|------------------|---------3----0-|
|----0-0-0-0-0-0-|-0-0-0-0-0-0-0---|------0-0-0-0-0-0-|-0-0-0-0--------|


                                 Bsus4        B                  Em
                     ~~~~           PM------|          PM----|
  +H..         E    +W           Q  E E E E E E   +Q   E E E E E E
|----------------|-------------|----------------|------------------|
|----------------|-------------|-5------------4-|-(4)--------------|
|-(2)--------/14-|-(14)--------|-4------------4-|-(4)--------------|
|-(2)------------|-------------|-4------------4-|-(4)------------5-|
|-(0)------------|-------------|-2--2-2-2-2-2---|------2-2-2-2---7-|
|----------------|-------------|----------------|------------------|


  Em                 Em        C
     PM------------|    PM   PM
  Q  E E E E E E   E Q  E Q  E E   +W           H    H
|----------------|---------------|------------|-----------|
|----------------|-------------5-|-(5)--------|-5----5----|
|----------------|-------------5-|-(5)--------|-5----5----|
|-5--------------|---5----5----5-|-(5)--------|-5----5----|
|-7--------------|---7----7------|------------|-----------|
|----0-0-0-0-0-0-|-0----0----0---|------------|-----------|


                                                Bsus4
         T            T              T
  |-3-|  |-3-| |-3-|  |-3-|   |-3-|  |-3-|
  E E E  E E E E E E  E E E   E E E  E E E Q  E E
|---------------------------|---------------------|
|---------------------------|-------------------5-|
|---------------------------|-------------------4-|
|---------------------------|-------------------4-|
|-0h3h7-12p7p3-0h3h7-12p7p3-|-0h3h7-12p7p3-0----2-|
|---------------------------|---------------------|


       PM------------------------|
  +Q   E E E E E E   E E E E E E E E
|------------------|-----------------|
|-(5)--------------|---------------4-|
|-(4)--------------|-----------------|
|-(4)--------------|-----------------|
|-(2)--2-2-2-2-2-2-|-2-2-2-2-2-2-2---|
|------------------|-----------------|


                                      E5  E5           B/Eb    E5 B5/F# G  Am
                                             PM------|
  +E  E E E E E E E   +E  E E E E E E E   Q  E E E E E E   +E  Q  E +E  Q  E
|-------------------|-------------------|----------------|-------------------|
|-(4)---------------|-------------------|----------------|-------------------|
|-----5-4-2-------5-|-(5)-4-2---------4-|--------------4-|-(4)-4--4-(4)-4--5-|
|-----------5-4-2---|---------5-4-2-1-2-|-2------------1-|-(1)-2--4-(4)-5--7-|
|-------------------|-------------------|-2--------------|-------------------|
|-------------------|-------------------|-0--0-0-0-0-0---|-------------------|


  Am                                 E5
   ~~~~             ~~~~~~~~~~
  +H..       a E   +H     +E  +E   E E
|----------------|---------------------|
|----------------|---------------------|
|-(5)------------|---------------------|
|-(7)--------7s9-|-(9)----(9)-(9)\---9-|
|----------------|-------------------7-|
|----------------|-------------------0-|


                   B/Eb    E5 B5/F# G  Am
       PM--------|
  +E   E E E E E E E   +E  Q  E +E  Q  E
|--------------------|-------------------|
|--------------------|-------------------|
|------------------4-|-(4)-4--4-(4)-4--5-|
|-(9)\-------------1-|-(1)-2--4-(4)-5--7-|
|-(7)\---------------|-------------------|
|-(0)\---0-0-0-0-0---|-------------------|


             F#          B/Eb        Em  E5            B/Eb    E5 B5/F# G
   ~~~                                       PM------|
  +H.      E  E    +Q.    E  +Q    E E   Q   E E E E E E   +E  Q  E +E  Q  a E
|---------------|----------------------|-----------------|---------------------|
|------------11-|-(11)---12-(12)\------|-----------------|---------------------|
|-(5)--------11-|-(11)---11-(11)\------|---------------4-|-(4)-4--4-(4)-4------|
|-(7)--------11-|-(11)---13-(13)\----5-|-9-------------1-|-(1)-2--4-(4)-5--5s7-|
|---------------|--------------------7-|-7\--------------|---------------------|
|---------------|----------------------|-0---0-0-0-0-0---|---------------------|


                                                   B/Eb    E5 B5/F# G
   ~~~                                   PM------|
  +H.      E E   E E e e S S E E E   Q   E E E E E E   +E  Q  E +E  Q  E
|--------------|-------------------|-----------------|-------------------|
|--------------|-------------------|-----------------|-------------------|
|--------------|-------------------|---------------4-|-(4)-4--4-(4)-4----|
|-(7)--------5h|=7p5-4-5-7p5p4-----|---------------1-|-(1)-2--4-(4)-5--7-|
|--------------|---------------7-6h|=7\--------------|-------------------|
|--------------|-------------------|-----0-0-0-0-0---|-------------------|


             F#5        B5        Em
   ~~~
  +H.      E E   +Q   E E +E   Q  E   +H..       E   +Q     H.
|--------------|------------------0-|-(0)--------x-|-(x)\---------||
|--------------|------------------0-|-(0)--------x-|-(x)\---------||
|--------------|------------------0-|-(0)--------x-|-(x)\---------||
|-(7)----------|--------4-(4)\----2-|-(2)----------|--------------||
|------------4-|-(4)----2-(2)\----2-|-(2)----------|--------------||
|------------2-|-(2)--------------0-|-(0)----------|-------15\----||


 Guitar Solo
   |-3--|  |-3--|  |--3--|  |--3--|
   E E  E  E  E E  E  E  E  E  E  E
|-----------------15p12-12-15p12p10-|
|-19p0h15-18p15p0-------------------|
|-----------------------------------|
|-----------------------------------|
|-----------------------------------|
|-----------------------------------|


   |-3-|  |-3-|  |--3--|  |-3--|    |-3--|  |-3--|  |--3--|  |-3--|
   E E E  E E E  E  E  E  E  E E    E E  E  E  E E  E  E  E  E  E E
|-12p0h7-12p7p0-15----12-15p12p0-|-19p0h15-18p15p0-15----12-15p12p0--|
|------------------12------------|--------------------12-------------|
|--------------------------------|-----------------------------------|
|--------------------------------|-----------------------------------|
|--------------------------------|-----------------------------------|
|--------------------------------|-----------------------------------|


   |-3-|  |-3-| |-3-| |-3-|    |-3--|  |-3--|  |--3--|  |--3--|
   E E E  E E E E E E E E E    E E  E  E  E E  E  E  E  E  E  E
|-12p0h7-12p7p0-7p0h3-7p3p0-|-----------------15p12-12-15p12p10-|
|---------------------------|-19p0h15-18p15p0-------------------|
|---------------------------|-----------------------------------|
|---------------------------|-----------------------------------|
|---------------------------|-----------------------------------|
|---------------------------|-----------------------------------|


   |-3-|  |-3-|  |--3--|  |-3--|
   E E E  E E E  E  E  E  E  E E
|-12p0h7-12p7p0-15----12-15p12p0--|
|------------------12-------------|
|---------------------------------|
|---------------------------------|
|---------------------------------|
|---------------------------------|


   |-3--|  |-3--|  |--3--|  |-3--|
   E E  E  E  E E  E  E  E  E  E E
|-19p0h15-18p15p0-15----12-15p12p0-|
|--------------------12------------|
|----------------------------------|
|----------------------------------|
|----------------------------------|
|----------------------------------|


   |-3-|  |-3-| |-3-| |-3-|   |-3-|     |-3--|  |-3--|
   E E E  E E E E E E E E E   E E E Q   E E  E  E  E E
|-12p0h7-12p7p0-7p0h3-7p3p0-|-5p2------11p8----------8---|
|---------------------------|-----4---------10----10-----|
|---------------------------|-------5----------11--------|
|---------------------------|----------------------------|
|---------------------------|----------------------------|
|---------------------------|----------------------------|


  |-3-| |--3--|  |--3--|  |--3--|
  E E E E  E  E  E  E  E  E  E  E
|-8p5-----------14p11----------11-|
|-----7------10-------13----13----|
|-------8-11-------------14-------|
|---------------------------------|
|---------------------------------|
|---------------------------------|


                  H=H           Faster Q=265
                                              ~~~
   |-3--|  |-3--|
   E E  E  E  E E  E  E  E  E    E  E  E  E   H
|-11p8----------8-17p14-------|-14p11-------/20----|
|------10----10---------16----|-------13-----------|
|---------11---------------17-|----------14--------|
|-----------------------------|--------------------|
|-----------------------------|--------------------|
|-----------------------------|--------------------|


  |-3-| |-3-| |-3-| |-3-|    |-3-|  |-3-|  |--3--|  |-3--|
  E E E E E E E E E E E E    E E E  E E E  E  E  E  E  E E
|-------------7p0h3-7p3p0-|-12p0h7-12p7p0-15----12-15p12p0-|
|-8p0h5-8p5p0-------------|------------------12------------|
|-------------------------|--------------------------------|
|-------------------------|--------------------------------|
|-------------------------|--------------------------------|
|-------------------------|--------------------------------|


   |-3-|  |-3--|  |-3--|  |-3--|
   E E E  E  E E  E E  E  E  E E
|-17p0-0-18p15p0-15p0h12-15p12p0--|
|---------------------------------|
|---------------------------------|
|---------------------------------|
|---------------------------------|
|---------------------------------|


   |-3-|  |-3--|  |--3--|
   E E E  E E  E  E  E  E  S  S  S  S
|-12p7p0-12p0-------11h12-14p12p11----|
|-------------12h13----------------13p|
|-------------------------------------|
|-------------------------------------|
|-------------------------------------|
|-------------------------------------|


                         |-3-|
   S  S  S  S  S  S S S  E E E  S S S S   E   Q.     +Q     Q
|---------------------------------------|---<19>---(<19>)--19---|
|-12p10-12p10---------------------------|-----------------------|
|-------------12p11-9p8-----------------|-----------------------|
|-----------------------10p9p7----------|-----------------------|
|------------------------------10p9p7p5-|-----------------------|
|---------------------------------------|-----------------------|


                                         ~~
   +Q    E  E  E  E  E  E    E  E  E  E  H
|-(19)--19h20-17-20----20-|----20----20-------|
|-------------------20----|-19----17----17----|
|-------------------------|-------------------|
|-------------------------|-------------------|
|-------------------------|-------------------|
|-------------------------|-------------------|


   |--3--|  |--3--|  |--3--|  |--3--|    |--3--|
   E  E  E  E  E  E  E  E  E  E  E  E    E  E  E  H     E  E
|-21p18----18p15----15p12----18p15----|-15p12----15----14-12--|
|-------20-------17-------14-------17-|-------14--------------|
|-------------------------------------|-----------------------|
|-------------------------------------|-----------------------|
|-------------------------------------|-----------------------|
|-------------------------------------|-----------------------|


   |--3--|  |--3--|              |--3--|
   E  E  E  E  E  E  S  S  S  S  E  E  E
|-15p14----------14-14----------14h15----|
|-------17-15h16-------17p16h17-------17-|
|----------------------------------------|
|----------------------------------------|
|----------------------------------------|
|----------------------------------------|


                     ~~
   |--3--|  |--3--|
   E  E  E  E  E  E  H      E  E  E  E  E  E  E  E
|-14-15-17-15-17-19-19----|---20-19-20-17-20----20-|
|-------------------------|------------------20----|
|-------------------------|------------------------|
|-------------------------|------------------------|
|-------------------------|------------------------|
|-------------------------|------------------------|


                                       |--3--|
   E  E  E  E  Q   S  S  S  S    E  E  E  E  E  +Q    E  E
|----20----20-----------15h17h|=19-17-19p17-19-(19)--15h17-|
|-19----17----16--17h19-------|----------------------------|
|-----------------------------|----------------------------|
|-----------------------------|----------------------------|
|-----------------------------|----------------------------|
|-----------------------------|----------------------------|


               ~~~~
                           |--3--|        |--3--|
   E  E E  E  +H       Q   E  E  E  E  E  E  E  E
|-17-15---15-(15)----|----15-15-18-15----15-15-15--|
|--------------------|----------------17-----------|
|--------------------|-----------------------------|
|--------------------|-----------------------------|
|--------------------|-----------------------------|
|--------------------|-----------------------------|


   |--3--|  |--3--|              |--3--|  |--3--|        |--3--|
   E  E  E  E  E  E  E  E  Q     E  E  E  E  E  E  E  E  E  E  E
|-12-12-12-------12-12----12--|-14h15p14----------14-------------|
|----------14-14-------14-----|----------17p16h17----17-16-16-17-|
|-----------------------------|----------------------------------|
|-----------------------------|----------------------------------|
|-----------------------------|----------------------------------|
|-----------------------------|----------------------------------|


               |--3--|  |--3--|  |--3--|
   S  S  S  S  E  E  E  E  E  E  E  E  E
|-14-15-14----------14----14-15----14-15-||
|----------17-16-17----17-------17-------||
|----------------------------------------||
|----------------------------------------||
|----------------------------------------||
|----------------------------------------||


 Solo 2
  Em                                                       C
   |3-|  |---3---|
   Q  E  E  E    E  E  E  E  S  S    E  E      +H.
|----14-15-14------17-17\---------|-19-19b20==(19)-----------|
|-17------------17----------------|--------------------------|
|---------------------------14-16-|--------------------------|
|---------------------------------|--------------------------|
|---------------------------------|--------------------------|
|---------------------------------|--------------------------|
|
| Gtr II
|        PM----------------------------------------------|
|  Q     E    E     E  E  E  E       E  E       E  E E E E E
|---------------------------------|--------------------------|
|---------------------------------|------------------------5-|
|---------------------------------|------------------------5-|
|--5------------------------------|------------------------5-|
|--7------------------------------|--------------------------|
|--------0----0-----0--0--0--0----|--0--0-------0--0-0-0-0---|


   +H        +E   E  Q      +Q.      E  +Q     a     +Q
|-(19)r=====(19)p18-19---|-(19)-----19-(19)---20b22-(20)---|
|------------------------|---------------------------------|
|------------------------|---------------------------------|
|------------------------|---------------------------------|
|------------------------|---------------------------------|
|------------------------|---------------------------------|
|
|       PM-----------------------------------------------|
|  +Q   E E   E   E  E E     E  E E  E   E  E         E  E
|------------------------|---------------------------------|
|--(5)-------------------|---------------------------------|
|--(5)-------------------|---------------------------------|
|--(5)-------------------|---------------------------------|
|------------------------|---------------------------------|
|-------0-0---0---0--0-0-|---0--0-0--0---0--0---------0--0-|


        Am                                                            Bsus4
                                                 ~~~
   a     +E   Q    a      +Q     +E   E  E    E  Q.    Q   a      +E.    +S
|------------17----------------------17----|----19p====0------------------------|
|-20b22-(20)------20b22==(20)r==(20)----20-|-17-----------22b24==(22)r==(22)b24-|
|------------------------------------------|------------------------------------|
|------------------------------------------|------------------------------------|
|------------------------------------------|------------------------------------|
|------------------------------------------|------------------------------------|
|
|               PM-----------------------------------------------|
|         Q     E          E  E   E   E  E    E  E E E Q           E  E
|------------------------------------------|------------------------------------|
|---------1--------------------------------|--------------------------5---------|
|---------2--------------------------------|--------------------------4---------|
|---------2--------------------------------|--------------------------4---------|
|---------0-----0----------0--0---0---0--0-|--0--0-0-0-0-----------0--2---------|
|------------------------------------------|------------------------------------|


                         B                                              Em
                    |---3---|    |--3---|
   +H         E  E  E  E    E    E   E  E  S  S  S  S  S  S  S  S  S  S  S  S
|------------15-17-19-17---15-|-17--15-14-15-14-------14------------------------|
|-(22)\-----------------------|-----------------17-15----17-15-13-17-15-13-12---|
|-----------------------------|-------------------------------------------------|
|-----------------------------|-------------------------------------------------|
|-----------------------------|-------------------------------------------------|
|-----------------------------|-------------------------------------------------|
|
|        PM--------|                       PM---------------|
|  +Q    E E  E  E  E    E      +Q         E     E     E     E     E     E
|-----------------------------|-------------------------------------------------|
|--(5)-------------------4----|-(4)---------------------------------------------|
|--(4)-------------------4----|-(4)---------------------------------------------|
|--(4)-------------------4----|-(4)--------------------------------------5------|
|--(2)---2-2--2--2--2---------|------------2-----2-----2-----2-----------7------|
|-----------------------------|-------------------------------------------------|


   |--3---|  |---3---|  |---3---|  |---3---|
   E   E  E  E  E    E  E  E    E  E  E    E
|--------------------------------------------|
|-15--13-12----13---12---------12------------|
|-----------14---------14-12------14-12---11-|
|--------------------------------------------|
|--------------------------------------------|
|--------------------------------------------|
|
|            PM-------------------------------
| +Q         E    E     E    E     E    E
|--------------------------------------------|
|--------------------------------------------|
|--------------------------------------------|
|-(5)----------------------------------------|
|-(7)----------------------------------------|
|------------0----0-----0----0-----0----0----|


        Em                          C
   |---3---|  |---3---|  |--3--|                       |--3--|
   E  E    E  E  E    E  E  E  E  E  E    E   E  E  E  E  E  E  E E
|--------------------------------------|--------15p12-19p15---------|
|-----------------------------12-17p12-|-----12-------------17------|
|-14-12---11----12---11----12----------|-12--------------------16---|
|------------14---------14-------------|----------------------------|
|--------------------------------------|----------------------------|
|--------------------------------------|----------------------------|
|
|-|                PM             PM
|  E    Q          E     Q        E  E   +W
|--------------------------------------|----------------------------|
|------------------------------------5-|-(5)------------------------|
|------------------------------------5-|-(5)------------------------|
|-------5----------------5-----------5-|-(5)------------------------|
|-------7----------------7-------------|----------------------------|
|--0---------------0--------------0----|----------------------------|


  C
                         ~~
   Q    a      +E   +E   H       +Q       E    E    Q      E    E
|-----------------------------|---------------14S==12---------------|
|-15--------------------------|-------------------------------------|
|------14b16==(14)r(14)-12----|-(12)S====11--------\9------9---11s==|
|-----------------------------|-------------------------------------|
|-----------------------------|-------------------------------------|
|-----------------------------|-------------------------------------|
|
|                                         T                T
|                                 |-3--|  |--3---|  |-3-|  |--3---|
| +H                     H        E  E E  E E    E  E E E  E E    E
|-----------------------------|-------------------------------------|
|-(5)--------------------5----|-------------------------------------|
|-(5)--------------------5----|-------------------------------------|
|-(5)--------------------5----|-------------------------------------|
|-----------------------------|---0h=3h7-12p7p===3--0h3h7-12p7p===3-|
|-----------------------------|-------------------------------------|


                            Bsus4
                       |---3---|    |--3---|  |---3---|
   E   E    Q.      E  E  E    E    E   E  E  E  E    E  E      +Q.
|--------------------------------|-------------------11-14b16==(14)-----||
|--------------------------------|--------------12----------------------||
|-12---9---11--------------------|-----------13-------------------------||
|-----------------------------13-|--------13----------------------------||
|---------------------11h14------|-11h=14-------------------------------||
|--------------------------------|--------------------------------------||
|
|           T                                 PM----------------------|
|  |--3--|  |-3-|
|  E E   E  E E E Q    E    E      +Q         E    E     E       E  E E
|--------------------------------|--------------------------------------||
|---------------------------5----|-(5)----------------------------------||
|---------------------------4----|-(4)----------------------------------||
|---------------------------4----|-(4)----------------------------------||
|--0h3h==7-12p7p3-0---------2----|-(2)--------2----2-----2-------2--2-2-||
|--------------------------------|--------------------------------------||


 Keyboard Solo
   +W                   +W            +H..       E    Wx10
|-(14)---------------|-(14)--------|-(14)r---------||---------||
|--------------------|-------------|---------------||---------||
|--------------------|-------------|---------------||---------||
|--------------------|-------------|---------------||---------||
|--------------------|-------------|---------------||---------||
|--------------------|-------------|---------------||---------||
|
|   PM-----------|
|   E  E E E E E E E     W             W              W
|--------------------|-------------|---------------||---------||
|------------------4-|-------------|---------------||---------||
|--------------------|-------------|---------------||---------||
|--------------------|-------------|---------------||---------||
|---2--2-2-2-2-2-2---|-------------|---------------||---------||
|--------------------|-------------|---------------||---------||


                       |--3--|  |--3--|
  H    Q    S  S  e    E  E  E  E  E  E  S  S  S  S  Q
|-------------------|----------------------------15h19--|
|-------------------|-------------------16h17h19--------|
|------x\-----------|----------16h17h19-----------------|
|------x\--16h17h19-|-16h17h19--------------------------|
|-------------------|-----------------------------------|
|-------------------|-----------------------------------|


               |--3--|  |--3--|
   +Q    E  E  E  E  E  E  E  E
|-(19)--20p19-19p14----14p11----|
|-------------------16-------13-|
|-------------------------------|
|-------------------------------|
|-------------------------------|
|-------------------------------|


               |3-|     |-3-|                  |3-|
   H     E  E  Q  E    +E   Q  a     +Q    Q   Q  E
|-14p===13p12-11-12-|-(12)-12-12b13-(12)--14--12-11-|
|-------------------|-------------------------------|
|-------------------|-------------------------------|
|-------------------|-------------------------------|
|-------------------|-------------------------------|
|-------------------|-------------------------------|


    |-3-|
   +E   Q  E  E  Q   S  S  S  S    S  S  S  S  S  S  S  S  S  E.  +Q
|-(11)-12-11--------11----------|----------------------------------------|
|------------13p12-----13p12----|-13p12----------------------------------|
|----------------------------14-|-------14p12-16----16----16-------------|
|-------------------------------|----------------16----14----13--(13)----|
|-------------------------------|----------------------------------------|
|-------------------------------|----------------------------------------|


              \1    /
                               ~~~~~~~~~~~~~~~~
   +Q    Q   +Q    +E   +E     H     H       H    E  Q   +E    Q  E E H
|---------------------------|-------------|------------------|-------------|
|---------------------------|-------------|------------------|-------------|
|-------14--(14)--(14)-(14)p|=11----------|------------------|-------------|
|-(13)----------------------|-------12----|-11----9h10--(10)p|=9--7h9-9----|
|---------------------------|-------------|------------------|-------------|
|---------------------------|-------------|------------------|-------------|


   |-3-|  |-3-|  |-3-|  |-3-|    |-3-|  |-3-|  |-3--|  |-3--|
   E E E  E E E  E E E  E E E    E E E  E E E  E E  E  E  E E
|-----------------------------|---------------12-8-11-12-11-8-|
|-----------------------------|-10-7-8-10-8-7-----------------|
|---------------11-8-9-11-9-8-|-------------------------------|
|-10-7-9-10-9-7---------------|-------------------------------|
|-----------------------------|-------------------------------|
|-----------------------------|-------------------------------|


   |--3--|  |--3--|  |--3--|  |--3--|
   E  E  E  E  E  E  E  E  E  E  E  E
|-14-11-12-14-12-11-15-12-14-15-14-12--|
|--------------------------------------|
|--------------------------------------|
|--------------------------------------|
|--------------------------------------|
|--------------------------------------|


   |--3--|  |--3--|  |--3--|  |--3--|
   E  E  E  E  E  E  E  E  E  E  E  E
|-17-12-14-15-14-12-17-12-14-15-14-12-|
|-------------------------------------|
|-------------------------------------|
|-------------------------------------|
|-------------------------------------|
|-------------------------------------|


   |--3--|  |--3--|
   E  E  E  E  E  E  H       +W            +W
|-17-12-14-15-14-12S19----|-(19)--------|-(19)----||
|-------------------------|-------------|---------||
|-------------------------|-------------|---------||
|-------------------------|-------------|---------||
|-------------------------|-------------|---------||
|-------------------------|-------------|---------||


 Verse
                                                          E5
   a     +E   E Q  H      W          W          H    Q  E E
|-21b24-(21)\-----------|----------|----------|-------------|
|-----------------------|----------|----------|-------------|
|-----------------------|----------|----------|-------------|
|-----------------------|----------|----------|-----------9-|
|-----------------------|----------|----------|-----------7-|
|-----------------------|----------|----------|-----------0-|
|
| Gtr II
|         Q     Q  H      W          W          H    Q  Q
|-----------------------|----------|----------|-------------|
|-----------------------|----------|----------|---------0---|
|-----------------------|----------|----------|-------------|
|-----------------------|----------|----------|-------------|
|---------7-------------|----------|----------|-------------|
|-----------------------|----------|----------|-------------|


  Em                        Em7                     D#m
  +W            W           W             W
|------------|------------|-------------|-------------|
|------------|------------|-------------|-------------|
|------------|------------|-------------|-------------|
|-(9)--------|------------|-------------|-------------|
|-(7)--------|------------|-------------|-------------|
|-(0)--------|------------|-------------|-------------|
|
|  W           +W           E E Q  H      H    Q  E E
|--0---------|-(0)--------|-------------|-------------|
|--0---------|-(0)--------|-3-----------|-------------|
|--0---------|-(0)--------|-0-----------|-------------|
|--2---------|-(2)--------|-2-----------|-----------4-|
|--2---------|-(2)--------|-2-----------|-----------6-|
|--0---------|-(0)--------|-0-----------|-------------|


             Em                 D#m            Em                 E7
  Gtr II
                      PM------|                         PM------|
  +H.      E E   +Q   E E E E E E   +H.      E E   +Q   E E E E E E
|--------------|------------------|--------------|------------------|
|--------------|------------------|--------------|------------------|
|--------------|------------------|--------------|----------------7-|
|-(4)--------5-|-(5)------------4-|-(4)--------5-|-(5)------------6-|
|-(6)--------7-|-(7)------------6-|-(6)--------7-|-(7)------------7-|
|--------------|------0-0-0-0-0---|------------0-|-(0)--0-0-0-0-0---|


  E7         Am                 Bbm            B
                      PM------|
  +H.      E E   +Q   E E E E E E   +H.      E E
|--------------|------------------|--------------|
|--------------|------------------|--------------|
|-(7)--------5-|-(5)------------6-|-(6)--------8-|
|-(6)--------7-|-(7)------------8-|-(8)--------9-|
|-(7)----------|------0-0-0-0-0---|--------------|
|--------------|------------------|--------------|


                                3/4
              |-3--|
  Q   S S S S E  E E S  S S S    E E Q  Q
|-----------------------------||-------------||
|----10p8p7-------------------||-------------||
|-8---------9p8---------------||-------------||
|-9-------------10p9p7--------||-------------||
|----------------------10p9p7s||=6-----------||
|-----------------------------||-------------||


   Chorus
    Em                             C
   4/4
    Gtr I
       PM------------------------|          PM--------------------------|
    Q  E E E E E E   E E E E E E E E   +Q   E E E E E E   E E E E E E E E
||-----------------|-----------------|------------------|------------------|
||o----------------|---------------5-|-(5)--------------|------------------|
||-----------------|---------------5-|-(5)--------------|------------------|
||--5--------------|---------------5-|-(5)--------------|------------------|
||o-7--------------|-----------------|------------------|------------------|
||-----0-0-0-0-0-0-|-0-0-0-0-0-0-0---|------0-0-0-0-0-0-|-0-0-0-0-0-0-0-0--|


  Am                                           Bsus4
     PM--------------------------------------|
  Q  E E E E          E  E     E    E E E Q  E E
|--------------------------|---------------------|
|-1------------------------|-------------------5-|
|-2------------------------|-------------------4-|
|-2------------------------|-------------------4-|
|-0--0-0-0-0----------0--0-|---0----0-0-0-0--0-2-|
|--------------------------|---------------------|
|
| Gtr II
|                              \2.5
|                              ~~~~~~
| H      Q    a      +Q       +W
|--------------------------|---------------------|
|--------------------------|---------------------|
|------------12b14==(12)---|-(12)r---------------|
|--------------------------|---------------------|
|--------------------------|---------------------|
|--------------------------|---------------------|


                 B                    Em
       PM------|          PM------|
  +Q   E E E E E E   +Q   E E  E  E E E
|------------------|--------------------|
|-(5)------------4-|-(4)----------------|
|-(4)------------4-|-(4)----------------|
|-(4)------------4-|-(4)--------------5-|
|-(2)--2-2-2-2-2---|------2-2--2--2---7-|
|------------------|--------------------|
|
|  W                  H        Q    Q
|------------------|--------------------|
|------------------|----------(0)-------|
|------------------|--------------------|
|------------------|--------------------|
|------------------|--------------------|
|------------------|--------------------|


                       Em        C
       PM------------|    PM   PM
  +Q   E E E E E E   E Q  E Q  E E   +W           H    H
|------------------|---------------|------------|-----------|
|------------------|-------------5-|-(5)--------|-5----5----|
|------------------|-------------5-|-(5)--------|-5----5----|
|-(5)--------------|---5----5----5-|-(5)--------|-5----5----|
|-(7)--------------|---7----7------|------------|-----------|
|------0-0-0-0-0-0-|-0----0----0---|------------|-----------|


                                                Bsus4
         T            T              T
  |-3-|  |-3-| |-3-|  |-3-|   |-3-|  |-3-|
  E E E  E E E E E E  E E E   E E E  E E E Q  E E
|---------------------------|---------------------|
|---------------------------|-------------------5-|
|---------------------------|-------------------4-|
|---------------------------|-------------------4-|
|-0h3h7-12p7p3-0h3h7-12p7p3-|-0h3h7-12p7p3-0----2-|
|---------------------------|---------------------|


       PM------------------------|
  +Q   E E E E E E   E E E E E E E E
|------------------|------------------||
|-(5)--------------|---------------4-o||
|-(4)--------------|------------------||
|-(4)--------------|------------------||
|-(2)--2-2-2-2-2-2-|-2-2-2-2-2-2-2---o||
|------------------|------------------||


 1/4   4/4
  Gtr I
  E E   +E  E E E E E E E   +E  E E E E E E E
|---2-|-(2)---------------|-------------------|
|-----|-----5-4-----------|-----4-------------|
|-----|---------5-4-2---5-|-(5)---5-4-2-----5-|
|-----|---------------5---|-------------5-4---|
|-----|-------------------|-------------------|
|-----|-------------------|-------------------|
|
| Gtr II
| E E    E  E E E E E E E   +E  E E E E E E E
|-----|-------------------|-------------------|
|---4-|--4----------------|-------------------|
|-----|-----5-4-2-------5-|-(5)-4-2---------2-|
|-----|-----------5-4-2---|---------5-4-2-1---|
|-----|-------------------|-------------------|
|-----|-------------------|-------------------|


  +E  E E E E E E E   +E  E E E E E E E
|-------------------|-------------------||
|-------------------|-------------------||
|-(5)-4-2---------2-|-(2)---------------||
|---------5-4-2-1---|-----5-4-2-1-------||
|-------------------|-------------3-2-0-||
|-------------------|-------------------||
|
| +E  E E E E E E E   +E  E E E E E E E
|-------------------|-------------------||
|-------------------|-------------------||
|-(2)---------------|-------------------||
|-----5-4-2-1-----4-|-(4)-2-1-----------||
|-------------3-2---|---------3-2-0-----||
|-------------------|---------------3-2-||


  E5
  Q.   E H      Q.   E H      Q.   E H      H    H
|-------------|-------------|-------------|-----------||
|-------------|-------------|-------------|-----------||
|-------------|-------------|-------------|-----------||
|-2-----------|-2-----------|-2-----------|-2---------||
|-2-----------|-2-----------|-2-----------|-2---------||
|-0-----------|-0-----------|-0-----------|-0---------||


 Outro
  E5
   ~~                     ~~~~
               |--3---|
   W           Q   Q  Q  +H
|-15--------|-15--17-19-(19)-----|
|-----------|--------------------|
|-----------|--------------------|
|-----------|--------------------|
|-----------|--------------------|
|-----------|--------------------|
|
| Gtr II
|  W          +W
|-----------|--------------------|
|-----------|--------------------|
|-----------|--------------------|
|--2--------|-(2)----------------|
|--2--------|-(2)----------------|
|--0--------|-(0)----------------|


            E5          E5
   H         H           H            H
|-15tr19--------------|----------------------------|
|-----------17tr20----|-12tr17--------8tr12--------|
|---------------------|----------------------------|
|---------------------|----------------------------|
|---------------------|----------------------------|
|---------------------|----------------------------|
|
| +H         H           Q      +Q    Q      +Q
|---------------------|----------------------------|
|---------------------|----------------------------|
|------------9--------|----------------------------|
|-(2)--------9--------|--9------(9)\--9------(9)\--|
|-(2)--------7--------|--7------(7)\--7------(7)\--|
|-(0)-----------------|--0-------------------------|


  C
               |-3-|
  Q  S  S S S  E E E E E   H         E  E  Q
|-8p=7-------------------|-7tr12----------12tr15--|
|------10p8p7-10p8p7---8-|-------------12---------|
|--------------------9---|----------12------------|
|------------------------|------------------------|
|------------------------|------------------------|
|------------------------|------------------------|
|
| H            Q     Q     W
|------------------------|------------------------|
|------------------------|-5----------------------|
|-5----------------------|-5----------------------|
|-5----------------------|-5----------------------|
|------------------------|------------------------|
|--------------0-----0---|------------------------|


   +Q        E  E  Q.       E    S  S  S  S  S  S  E      +H
|-(12tr15)--------15tr19---19h|=20p19p17----------22b24==(22)----|
|--------------17-------------|----------20-19-17----------------|
|-----------16----------------|----------------------------------|
|-----------------------------|----------------------------------|
|-----------------------------|----------------------------------|
|-----------------------------|----------------------------------|
|
|   W                            H                         H
|-----------------------------|----------------------------------|
|-----------------------------|----------------------------------|
|---5-------------------------|--5-------------------------5-----|
|---5-------------------------|--5-------------------------5-----|
|-----------------------------|----------------------------------|
|-----------------------------|----------------------------------|


     D
       ~~~~
                     |--3--|  |--3--|
   a  +H.      Q     Q  Q  Q  S  S  S  E  S  S  E
|-22r(22)---------|-14-15-17-15h17p15p14h15p14-12-|
|-----------------|-------------------------------|
|-----------------|-------------------------------|
|-----------------|-------------------------------|
|-----------------|-------------------------------|
|-----------------|-------------------------------|
|
|      W             H        H
|-----------------|-------------------------------|
|------7----------|-------------------------------|
|------7----------|-------------------------------|
|------7----------|-------------------------------|
|-----------------|-------------------------------|
|-----------------|--0--------0-------------------|


   S  S  S S  S  S S S  S S S  S S S  S S
|-14p12p10-8-12p10p8-7-10p8p7----8p7--------|
|-----------------------------10-----10p8---|
|-------------------------------------------|
|-------------------------------------------|
|-------------------------------------------|
|-------------------------------------------|
|
|  H                    H
|-------------------------------------------|
|-------------------------------------------|
|-------------------------------------------|
|-------------------------------------------|
|-------------------------------------------|
|--0--------------------0-------------------|


  E5                 E5
           ~~~~~~~~~~~~
  S  S S S H.        Q  +E   E H
|-7----------------|----------------*|
|---10p8p7---------|----------------*|
|----------9-------|-9--(9)\--------*|
|------------------|----------------*|
|------------------|----------------*|
|------------------|----------------*|
|
| W                  W
|------------------|----------------*|
|------------------|----------------*|
|------------------|----------------*|
|-9----------------|-9--------------*|
|-7----------------|-7--------------*|
|-0----------------|-0--------------*|



Duration Legend
---------------
W - whole; H - half; Q - quarter; E - 8th; S - 16th; T - 32nd; X - 64th; a - acciaccatura
+ - note tied to previous; . - note dotted; .. - note double dotted
Uncapitalized letters represent notes that are staccato (1/2 duration)
Irregular groupings are notated above the duration line
Duration letters will always appear directly above the note/fret number it represents the
duration for.  Duration letters with no fret number below them represent rests.  Multi-
bar rests are notated in the form Wxn, where n is the number of bars to rest for.  Low
melody durations appear below the staff

Tablature Legend
----------------
 h   - hammer-on
 p   - pull-off
 b   - bend
 pb  - pre-bend
 r   - bend release (if no number after the r, then release immediately)
 /\  - slide into or out of (from/to "nowhere")
 s   - legato slide
 S   - shift slide
 - natural harmonic
[n]  - artificial harmonic
n(n) - tapped harmonic
 ~   - vibrato
 tr  - trill
 T   - tap
 TP  - trem. picking
 PM  - palm muting
\n/  - tremolo bar dip; n = amount to dip
 \n  - tremolo bar down
 n/  - tremolo bar up
/n\  - tremolo bar inverted dip
 =   - hold bend; also acts as connecting device for hammers/pulls
 <> - volume swell (louder/softer)
 x   - on rhythm slash represents muted slash
 o   - on rhythm slash represents single note slash

Misc Legend
-----------
 |  - bar
||  - double bar
||o - repeat start
o|| - repeat end
*|  - double bar (ending)
 :  - bar (freetime)
 $  - Segno
 &  - Coda
Tempo markers -  = BPM(8/16=s8/s16), where s8 = swing 8ths, s16 = swing 16ths

Tap to rate this tab
 
# A B C D E F G H I J K L M N O P Q R S T U V W X Y Z