Guitaretab - guitar tabs
Song name
# A B C D E F G H I J K L M N O P Q R S T U V W X Y Z

Malmsteen Yngwie - Liar tab

                               LIAR 
                            (Fireflight)


INTRO:

Drop C#/Db

X = mute
/ = slide down
\ = slide up
[ Tab from: http://www.guitaretab.com/m/malmsteen-yngwie/11008.html ]
eb---------------------------------------------------|
Bb---------------------------------------------------|
Gb---------------------7-7-7h9-9-9/10-10-10\9-9------|
Db-0-0-0-0-0-0-0-0-X-X-0-0-0-0-0-0-0--0--0--0-0-X-X--|
Ab-0-0-0-0-0-0-0-0-X-X--------------------------X-X--|
Db-0-0-0-0-0-0-0-0-X-X--------------------------X-X--|


eb--------------------------------|
Bb--------------------------------|
Gb-7-7-7h9-9-9/10-10-10\9-9-------|  (ONE MORE TIME)
Db-0-0-0-0-0-0-0--0--0--0-0-X-X---|
Ab--------------------------X-X---|
Db--------------------------X-X---|

(I haven't figured out the rest of the intro but, here's most of it)
Related for Liar tab