Song name
# A B C D E F G H I J K L M N O P Q R S T U V W X Y Z

Malmsteen Yngwie - Marching Out tab

#----------------------------------PLEASE NOTE---------------------------------#
#This file is the author's own work and represents their interpretation of the #
#song. You may only use this file for private study, scholarship, or research. #
#------------------------------------------------------------------------------#

MARCHING OUT
As recorded by Yngwie J. Malmsteen
(From the 1985 Album MARCHING OUT)

Transcribed by Matti Akkanen
	

Music by Yngwie J. Malmsteen

Bbm
7 9 9 7 7 7
	
Cm/Bb
7 11 x 9 9 9
	
Bm
7 9 9 7 7 7
	
Bm(type 2)
7 9 9 7 7 7

C#m/B#
8 x 11 9 9 9
	
C#m/B
7 11 11 9 9 9

Gtr I (Eb Ab Db Gb Bb Eb) - 'Yngwie Lead'
Gtr II (Eb Ab Db Gb Bb Eb) - 'Gtr 2'
Gtr III (Eb Ab Db Gb Bb Eb) - 'Acoustic Gtr.'
Gtr IV (Eb Ab Db Gb Bb Eb) - 'Keys'

 Intro
  Moderately Q=126
              Bm
 4/4
  Gtr I
  W            S  S  S  S  S  S  S  S S  S  S  S  S  S  S  S
|----------||-------14----12----10----9----12----10----------|
|----------||-12-------12----12----12---12----12----14-12-11-|
|----------||----11------------------------------------------|
|----------||------------------------------------------------|
|----------||------------------------------------------------|
|----------||------------------------------------------------|
|
| Gtr II
| W            H                      Q           S  S  S  S
|----------||------------------------------------------------|
|----------||------------------------------------------------|
|----------||-------------------------------------7--6-------|
|----------||-------------------------------------------9--8-|
|----------||------------------------------------------------|
|----------||------------------------------------------------|


   S  S  S  S  S  S  S  S S  S  S  S  S  S  S  S
|-------14----12----10----9S15-14-12-------------|
|-12-------12----12----12------------15-14-12-11-|
|----11------------------------------------------|
|------------------------------------------------|
|------------------------------------------------|
|------------------------------------------------|
|
|  S  S  E     Q          S  S  S  S  S  S  S  S
|---------------------------19-17-15-14----------|
|---------------------------------------17-15-14-|
|------------------------------------------------|
|--9---------------------------------------------|
|------------------------------------------------|
|------------------------------------------------|


   S  S  S  S  S  S  S  S S  S  S  S  S  S  S  S
|-------14----12----10----9----12----10----------|
|-12-------12----12----12---12----12----14-12-11-|
|----11------------------------------------------|
|------------------------------------------------|
|------------------------------------------------|
|------------------------------------------------|
|
|  S  S  E     Q          Q           S  S  S  S
|------------------------------------------------|
|-15---------------------------------------------|
|-------------------------------------7--6-------|
|-------------------------------------------9--8-|
|------------------------------------------------|
|------------------------------------------------|


   S  S  S  S  S  S  S  S S   S  S  S  S  S  S  S
|-------14----12----10----9S=15-14-12-------------|
|-12-------12----12----12-------------15-14-12-11-|
|----11-------------------------------------------|
|-------------------------------------------------|
|-------------------------------------------------|
|-------------------------------------------------|
|
|  S  S  E     Q          S   S  S  S  S  S  S  S
|---------------------------/19-17-15-14----------|
|----------------------------------------17-15-14-|
|-------------------------------------------------|
|--9----------------------------------------------|
|-------------------------------------------------|
|-------------------------------------------------|


   PM------------------------------------------|
   S  S  S  S  S  S  S  S  S  S  S  S  S  S  S S
|------------------------------------------------|
|-12---------------------------------------------|
|----12-11--9------------------------------------|
|-------------12-11--9--8--9---------------------|
|----------------------------10--9--7------------|
|-------------------------------------10--9--7-6-|
|
|  PM------------------------------------------|
|  S  S  S  S  S  S  S  S  S  S  S  S  S  S  S S
|------------------------------------------------|
|-15---------------------------------------------|
|----16-14-12-11---------------------------------|
|----------------14-12-11-12---------------------|
|----------------------------14-12-10--9---------|
|----------------------------------------12-10-9-|


  Q=138
  B5   F#5    B5   F#5    B5   F5
                               ~
  H    H      H    H      H    H
|-----------|-----------|-----------|
|-----------|-----------|-----------|
|-----------|-4---------|-4---------|
|-9----4----|-4----4----|-4---------|
|-9----4----|-2----4----|-2---------|
|-7----2----|------2----|------1----|
|
| H    H      H    H      H    H
|-----------|-----------|-----------|
|-----------|-----------|-----------|
|-----------|-4---------|-4---------|
|-x----x----|-4----4----|-4----3----|
|-9----4----|-2----4----|-2----3----|
|-7----2----|------2----|------1----|


  H.=H
  F#5    Badd2
 2/4    4/4
                                                             >
         ~           ~~~   T     T     T     T     T         ~~~
  H      W           Q   E E     E     E     E     E        +W
|------|-2--------|--2-----------2(14)-------------------||-(2)----||
|------|-2--------|--2-----2(14)-------2(14)-2(14)-------||-(2)----||
|------|-4--------|--4-----------------------------4(16)-||-(4)----||
|------|-4--------|-(4)----------------------------------||-(4)----||
|------|-2--------|-(2)----------------------------------||-(2)----||
|-2----|----------|--------------------------------------||--------||
|                    W
|
|                                                            >
|        TP          TP
| H      W          +W                                      +W
|------|----------|--------------------------------------||--------||
|------|----------|--------------------------------------||--------||
|------|-4--------|-(4)----------------------------------||-(4)----||
|-4----|-4--------|-(4)----------------------------------||-(4)----||
|-4----|-2--------|-(2)----------------------------------||-(2)----||
|-2----|----------|--------------------------------------||--------||


  Half-time feel H=66
  Bsus2
 2/2
  Gtr I
  W                 W                 W                 H        Q    Q
|-----------------|-----------------|-----------------|---------14---12---||
|-----------------|-----------------|-----------------|-------------------||
|-----------------|-----------------|-----------------|-------------------||
|-----------------|-----------------|-----------------|-------------------||
|-----------------|-----------------|-----------------|-------------------||
|-----------------|-----------------|-----------------|-------------------||
|
| Gtr III
| E E E E E E E E   E E E E E E E E   E E E E E E E E   E E E E  E E  E E
|---2-----2-------|---2-----2-------|---2-----2-------|---2------2--------||
|-------2---2-----|-------2---2-----|-------2---2-----|-------2----2------||
|-4---4-------4---|-4---4-------4---|-4---4-------4---|-4---4---------4---||
|---------------4-|---------------4-|---------------4-|-----------------4-||
|-----------------|-----------------|-----------------|-------------------||
|-----------------|-----------------|-----------------|-------------------||


 Main
      ~~~
   a  H.           Q     Q   S     +S  +E  E  E  E E
|-12p10----------------|-----9b10==(9)r(9)p7-----7-9-|
|----------------------|---------------------(7)-----|
|----------------------|-----------------------------|
|----------------------|-----------------------------|
|----------------------|-----------------------------|
|----------------------|-----------------------------|
|
|     E  E E E E E E E   E E E          E  E  E  E E
|--------2-----2-------|---2---------------2---------|
|------------2---2-----|----------------2-----2------|
|-----4----4-------4---|-4---4-------------------4---|
|--------------------4-|---------------------------4-|
|----------------------|-----------------------------|
|----------------------|-----------------------------|


         ~
  S  S E H       +E   S S   +Q.     E +E.   S Q
|-9h10p9-7-------(7)------|------------------------|
|-------------------------|------------------------|
|--------------------11s9-|-(9)-----9-(9)p==7s6----|
|-------------------------|------------------------|
|-------------------------|------------------------|
|-------------------------|------------------------|
|
| E    E E E E E  E   E      E  E E E  E  E   E E
|------2-----2------------|-----2------2-----------|
|----------2---2----------|---------2-----2--------|
|-4------4--------4-------|--4----4-----------4----|
|---------------------4---|---------------------4--|
|-------------------------|------------------------|
|-------------------------|------------------------|


                          \2/         \1/
  |-------5-------|
  S  S  S     S   S  Q    Q      +S   E     S
|----------------10-14h==21-----(21)p17-------|
|-----------(12)------------------------------|
|------11-------------------------------------|
|---12----------------------------------------|
|---------------------------------------------|
|---------------------------------------------|
|
| E       E          E E  E   E   E       E
|---------2---------------2-------------------|
|----------------------2------2---------------|
|-4------------------4------------4-----------|
|-----------------------------------------4---|
|---------------------------------------------|
|---------------------------------------------|


         \1/
  Q   E  a    E  +E.    S  S S  E   W
|-------12s==14-(14)---12-10s9s10-|------------------|
|---------------------------------|------------------|
|---------------------------------|------------------|
|---------------------------------|------------------|
|---------------------------------|------------------|
|---------------------------------|------------------|
|
| E E E       E   E  E     E    E   E E E E E E E E
|---2-------------2---------------|---2-----2--------|
|-------------2------2------------|-------2---2------|
|-4---4--------------------4------|-4---4-------4----|
|-------------------------------4-|---------------4--|
|---------------------------------|------------------|
|---------------------------------|------------------|


                      Quasi rubato feel
                       Bm
                       Gtr IV
  W                     W           +W
                        |            |
                        /            /

                       Gtr I
                        ~~                 PM--|
                                           |-3-|
  H       a Q   Q       W           +H     q q q
|-------------------||-----------|----------------|
|-------------------||-----------|----------------|
|-------------------||-----------|-----------6-7--|
|-------------------||-11--------|-(11)-----------|
|---------xs5s==9---||-----------|---------9------|
|-------------------||-----------|----------------|
|
| E E E E   E E E E     W            W
|---2-------2-------||-----------|----------------|
|-------2-----2-----||-----------|----------------|
|-4---4---------4---||-----------|----------------|
|-----------------4-||-----------|----------------|
|-------------------||-----------|----------------|
|-------------------||-----------|----------------|


  C#m/B
  W                       +W
  |                        |
  /                        /

                             \1/
                                     ~~~~~~
  S    +E. +H     +E. S    S E.  S S E +E  E Q
|-----------------------|-----------------------|
|-----------------------|-----------------------|
|-7b9==(7)-(7)----(7)r7s|==6-7p==6p4h6-(6)------|
|-----------------------|-----------------------|
|-----------------------|-----------------------|
|-----------------------|-----------------------|


  Bm
   W
   |
   /

                                \1/
                    T
   S  S  S  S  +E.  T  T  S  E. Q
|----------14-(14)h16p14p12s10h12----|
|-------12---------------------------|
|----11------------------------------|
|-12---------------------------------|
|------------------------------------|
|------------------------------------|


  Bm
   +W
    |
    /

                        \1/
   +Q    +E   S S +Q    Q
|-(12)--(12)p10s9-(9)--10----|
|----------------------------|
|----------------------------|
|----------------------------|
|----------------------------|
|----------------------------|


  C#m/B
   W                                +W
   |                                 |
   /                                 /

        \1/   \1/
                               ~~~~~~~~~
   S S  E    +S    S E +Q    S E.   +H     S S E Q
|-12p9h10---(10)--12p9-(9)--10-7--|-(7)-------------|
|---------------------------------|-----------------|
|---------------------------------|----------x---7--|
|---------------------------------|----------x------|
|---------------------------------|-----------------|
|---------------------------------|-----------------|


  Bm                                           C#m/B
     W                +W                       W
     |                 |                       |
     /                 /                       /

     ~~                              T ~~
            |-3--|
  a  H     +Q  Q Q     S    +E. +E   E H       E Q  E E S S E S S
|-------------------|------------------------|----------------------|
|-------------------|------------------------|----------------------|
|-7s11----(11)-9-7--|--7b9==(7)-(7)-12p7r----|-7s6--7-4-6-4s6-4p2h==|
|-------------------|------------------------|----------------------|
|-------------------|------------------------|----------------------|
|-------------------|------------------------|----------------------|


                      Bm
  +W                  W
   |                  |
   /                  /

   ~~       PM----------|
              |-3-|               |----6----| |-3-|          |-3-|
   H    +E  E E E E   S S T T T S S S S S S S S S S  S.  +E  S S S
|-------------------|---------------------------7-9s10--(10)p9p7-9-|
|-------------------|-----------------------7h9--------------------|
|--4----(4)-------6-|-7-9-7h9p7p6h7---6h7h9------------------------|
|-----------6-7-9---|---------------9------------------------------|
|-------------------|----------------------------------------------|
|-------------------|----------------------------------------------|


                             C#m/B
  +W                          W
   |                          |
   /                          /

                              ~~~~~~~~~~~~~~~~~~~~~~~~~~~~~~~~~~~~~~~~~~~~~~~
                                     |---------------5---------------|
  +E   E  E  E  E  E  E  E    H     +S      +S      +S      +S      +S   Q
|-(9)s10-10s14-14s19-19s21-|-21----(21)b22r(21)b22r(21)b22r(21)b22r(21)-21--|
|--------------------------|------------------------------------------------|
|--------------------------|------------------------------------------------|
|--------------------------|------------------------------------------------|
|--------------------------|------------------------------------------------|
|--------------------------|------------------------------------------------|


   +W
    |
    /

 ~~~~~~~~~~
   +E   Q.    +S   S E S S  E
|-(21)-21----(21)\------------|
|-----------------------------|
|------------------x----------|
|------------------------xs12-|
|-----------------------------|
|-----------------------------|


  Bm                                                 C#m/B
   W                         +W                       W
   |                          |                       |
   /                          /                       /

                  ~~~~                                ~~~           ~~~
   |----3-----|
   E   S   S  E  +H.          E   E Q    Q.   S  S    H     S  S E +Q
|------------14-(14)------|-(14)\------/14p==12p10-|-12p===11p10p9-(9)--|
|----(12)-12--------------|------------------------|--------------------|
|-11----------------------|------------------------|--------------------|
|-------------------------|------------------------|--------------------|
|-------------------------|------------------------|--------------------|
|-------------------------|------------------------|--------------------|


                           Bm
  +W                        W                    +W
   |                        |                     |
   /                        /                     /

                                    ~                                    ~
        |-3--|  |-3--|
   Q  E S S  S  Q  Q Q   a  S S S S H     E  E    E  E E  E E    +S  +S  Q
|---------9h10h12-10-9-|-9h10p9-7-9-7----------|----------------------------|
|----------------------|-----------------10-12-|--7-10----------------------|
|----------------------|-----------------------|-------9-11-7b9==(7)r(7)----|
|----------------------|-----------------------|-------------------------9--|
|----------------------|-----------------------|----------------------------|
|----------------------|-----------------------|----------------------------|


  C#m/B
   W
   |
   /

   ~~~
                       |--3---|
  +E   S  S  S  S  E  +S   S  S S  S  S S  S      +S
|-----------------14-(14)p12p10-9-10----9-------------|
|------------------------------------12---12b14==(12)r|
|--------11----11-------------------------------------|
|-(9)-12----12----------------------------------------|
|-----------------------------------------------------|
|-----------------------------------------------------|


   +W
    |
    /

               ~~~~~~~~~~~~
   +S   S  E  +H      +Q
|---------------------------|
|-(12)p10-12-(12)----(12)\--|
|---------------------------|
|---------------------------|
|---------------------------|
|---------------------------|


  Bm
  W
  |
  /

  |------------15:8-------------| |----------12:8-----------|
  S S S S S S S S S S S  S S S  S S S  S S S  S S S  S S S  S
|--------------------------7------7-9-----------7-9-10-7------|
|---------7-------6s7h9-10---9h10-----10-7-9h10----------9h10-|
|-------7---6h7h9---------------------------------------------|
|-6h7h9-------------------------------------------------------|
|-------------------------------------------------------------|
|-------------------------------------------------------------|


  +W
   |
   /

   |-------------13:8--------------|  |-------------12:8---------------|
   S S  S S S  S  S S  S  S  S  S  S  S  S  S  S  S  S  S  S  S  S  S  S
|--7h9-10-7-9-10-12-9-10-12s14-10-12-14s16-12-14-16s17-14-16-17-19-16-17-|
|------------------------------------------------------------------------|
|------------------------------------------------------------------------|
|------------------------------------------------------------------------|
|------------------------------------------------------------------------|
|------------------------------------------------------------------------|


  C#m/B
   W
   |
   /

   |------------12:8-------------|  |-------------12:8---------------|
   S  E  S  S  S  S  S  S  S  S  S  S  S  S  S  S  S  S  S  S  S  S  S
|-19s21-19-17s16-19-17-16----17-16-------16----------------------------|
|-------------------------19-------19-17----19-17p15-19-17-15s14-17-15-|
|----------------------------------------------------------------------|
|----------------------------------------------------------------------|
|----------------------------------------------------------------------|
|----------------------------------------------------------------------|


  +W
   |
   /

   |-------------12:8--------------|  |-----7-----|
   S  S  S  S  S  S  S  S  S  S  S S  S S S S S S S S E.
|--------------------------------------------------------|
|-14s12-15-14-12s11-14p12p10-----------------------------|
|----------------------------12p11s9\-7p6----------------|
|-----------------------------------------9p7p6----------|
|-----------------------------------------------9p7p5p0--|
|--------------------------------------------------------|


  Bm
   W                        +W
   |                         |
   /                         /

               \2/                \2/                       \2/         \2/
                     ~~~~                                               ~~~~
                                             |--3--|   |------3------|
  +Q.   E +S   E.   +Q      +S   +S    +E   +E  E  E  +S   +S    +E  E  Q
|------------------------|---------------------------------------------------|
|------------------------|---------------------------------------------------|
|------------------------|---------------------------------------------------|
|-------9-(9)h11---(11)--|-(11)-(11)--(11)-(11)p9h11-(11)-(11)--(11)p9h11----|
|-(0)--------------------|---------------------------------------------------|
|------------------------|---------------------------------------------------|


  C#m/B
  W
  |
  /

  PM---|                  ~~~
  |--3--| |--3--| |-3--|
  e  e  e s S E E E  E E +E    S  S
|-----------------------------------|
|-----------------------------------|
|------11---------------------------|
|-9-11----9---9---9h11p9-(9)-----16-|
|----------------------------/17----|
|-----------------------------------|


  +W
   |
   /

                                        \2/
                            T
   S   S   E  +S   S  S  S  S  S  S  S  Q
|---------14-(14)-19p14----21----------------|
|-----------------------15----15-19-15h17----|
|----(16)------------------------------------|
|--------------------------------------------|
|-17-----------------------------------------|
|--------------------------------------------|


  Bm
    W
    |
    /

                 \1/   \1/             \1/
                       |----------6----------|
   +Q    +E.  S  Q     S    +S   +S   +S    +E
|-----------------------------------------------|
|-(17)--(17)h19p15h===19---(19)-(19)-(19)--(19)-|
|-----------------------------------------------|
|-----------------------------------------------|
|-----------------------------------------------|
|-----------------------------------------------|


   +W
    |
    /

              \1/          \1/         \2/            \1/
    |--3---|
    S   S  S  E    +S   S  E    S  T  +T   E  +S   S  E
|---------------------------------------------------------|
|-(19)p17p15h17---(17)h19p15---15h19-(19)p17-(17)h19p15h==|
|---------------------------------------------------------|
|---------------------------------------------------------|
|---------------------------------------------------------|
|---------------------------------------------------------|


  C#m/B
   W
   |
   /

          \1/                      /1\           \1/               /4\
                     |--3---|
   S  T  +T    +E   +S   S  S  S  +S    +S   T  +T    +S   S  +E   E
|----------------------------------------------------------------------|
|-19p17-(17)--(17)-(17)h19p17p15-(15)--(15)h17-(17)--(17)h19-(19)-21p==|
|----------------------------------------------------------------------|
|----------------------------------------------------------------------|
|----------------------------------------------------------------------|
|----------------------------------------------------------------------|


  +W
   |
   /

                /4\        /2\           \1/           \1/                   \2/           \1/
                                     |-------------6--------------|   |---------6----------|
   E  E  S  T  +T    +S   +T    +T   S  +S    +S   T  +T    +S   +S   S  S  +S    +S   S  +S
|----------------------------------------------------------------------------------------------|
|-17h19p15h17-(17)--(17)-(17)--(17)p15-(15)--(15)h17-(17)--(17)-(17)p15p14-(14)--(14)h15-(15)--|
|----------------------------------------------------------------------------------------------|
|----------------------------------------------------------------------------------------------|
|----------------------------------------------------------------------------------------------|
|----------------------------------------------------------------------------------------------|


  Bm
    W
    |
    /

                                ~~~~
        |--3--|   |-3-|
   +E   S  S  S  +S   E  S  S  +H
|-------------------------------------|
|-(15)p14p12--------------------------|
|------------14-(14)-16-14s16-(16)----|
|---------------------x---------------|
|-------------------------------------|
|-------------------------------------|


  +W
   |
   /

      |--3--|  |----------9:8----------|  |--3---|             |--3--|
   E  S  S  S  T  T  T  T  T  T  T  T  T  E  E   E T  T  T  T  S  S  S
|-------------------------------------------------------------10h12p10s=|
|--x----------14h15h17p15p14-14h15p14s12-14-12-/17---10h12h14-----------|
|----14h16h18-----------------------------------------------------------|
|-----------------------------------------------------------------------|
|-----------------------------------------------------------------------|
|-----------------------------------------------------------------------|


  C#m/B
  W
  |
  /

  |------7------| |-------8-------|  |----6----| |----6----|
  S  S S S  S S S S S S  S S S S  S  S S S S S S S S S S S S
|-9-10p9s7--------7h9p7--------------------------------------|
|----------10p9p7-------10p9p7-------7-----------------------|
|------------------------------9p(7)---9p7h9-6-7-------6-7p6-|
|------------------------------------------------9p7-9-------|
|------------------------------------------------------------|
|------------------------------------------------------------|


  +W
   |
   /

   |----6:3----|        |------6------|  |-----------11:8-------------|
   T T T T  T  S. S. T  S  S  S  S S  S  S  S  S S  S  S  S  S  S  S  S
|---------------------------------------------10p9-----------------------|
|-----------------9--9s10-14p12p10s9h12p10-12------12p10h14p12p10s14h17p=|
|----6-7h9-10s11---------------------------------------------------------|
|--9---------------------------------------------------------------------|
|------------------------------------------------------------------------|
|------------------------------------------------------------------------|


  Bm
   W
   |
   /

                                                                     ~~
   |-------------12:8---------------|  |------------12:8-------------|
   S  S  S  S  S  S  S  S  S  S  S  S  S  S  S  S  S  S  S  S  S  S  E
|----------------------------------------------------------------------|
|-15p14s12h15p14-12S15h19p17p15s14h17-15p14s17-20p19-17S15-19-17p15-17-|
|----------------------------------------------------------------------|
|----------------------------------------------------------------------|
|----------------------------------------------------------------------|
|----------------------------------------------------------------------|


   +W
    |
    /

          |--3--|
   +Q.    S  S  S  E  E  E     E
|--------------------------------|
|-(17)---15h17p15-14-15-------15-|
|-----------------------16b18r===|
|--------------------------------|
|--------------------------------|
|--------------------------------|


  C#m/B
   W                                   +W
   |                                    |
   /                                    /

   ~~~                                                    ~~~
   Q.   S  S S     S  S S  S S S  S     S S S S S  S E   +Q.    E
|------------------7-----------------|------------------------------|
|-------7h10---------10p7------------|----7-------------------------|
|-16---------9pb11r=======10p9p7-(9)-|--9-----9-7\------------------|
|------------------------------------|------9------9-7b9-(7)---(7)\-|
|------------------------------------|------------------------------|
|------------------------------------|------------------------------|


  Bm
   W                            +W
   |                             |
   /                             /

                      \2/
                  ~~~~~~~~           ~~~
   |-----6-----|
   s  s  S  S  E  Q   H         +E   Q.    E    E  S  S  E
|----------------14h=21------|-(21)-21----21\-----------14h|
|-------------12-------------|-----------------------12----|
|-11-11----11----------------|--------------------11-------|
|-------12-------------------|----------------/12----------|
|----------------------------|-----------------------------|
|----------------------------|-----------------------------|


  C#m/B
   W
   |
   /

                                               ~~~~
                                 |----3----|
   S  S  S  S  S  S  S      +S   S      S  S  +Q.
|-16p14p12s10h12------------------------------------|
|----------------14-14pb15r(14)-14pb15r14p12-(12)---|
|---------------------------------------------------|
|---------------------------------------------------|
|---------------------------------------------------|
|---------------------------------------------------|


   +W
    |
    /

    ~~~~~~
   +E   Q   E  +E.    S  +E   E
|-------------------/14-(14)-17pb19==|
|-(12)-12--12-(12)\------------------|
|------------------------------------|
|------------------------------------|
|------------------------------------|
|------------------------------------|


  Bm
    W                            +W
    |                             |
    /                             /

          ~~~~~                                ~~
               |--3--|
   +Q    +Q    E  E  E     Q     +H      S  S  Q  E
|-(17)--(17)r=17-14-----------|---------------------|
|-------------------17b19r17--|-(17)p===16p15p14--x-|
|-----------------------------|---------------------|
|-----------------------------|---------------------|
|-----------------------------|---------------------|
|-----------------------------|---------------------|


  C#m/B
    W                        +W
    |                         |
    /                         /

                              ~~~
    |--3--|  |----3----|               |---3---|
    Q  Q  Q  Q      Q  Q      Q.    E  Q  +Q   Q
|-----14-17--------14-17---|-21----17-20-(20)-21--|
|-/17-------17b19==========|======================|
|--------------------------|----------------------|
|--------------------------|----------------------|
|--------------------------|----------------------|
|--------------------------|----------------------|


  Bm
   W
   |
   /

                  ~~~~~~~~~~~~~
   Q       +Q    +Q    +S   E.
|-20b24===(20)--(20)--(20)-20--|
|------------------------------|
|------------------------------|
|------------------------------|
|------------------------------|
|------------------------------|


   +W
    |
    /

    ~~~~~~~~~~~~~~~~~~~~~~~~
   +Q    Q   +Q    +S   E.
|-(20)--20--(20)--(20)-20--|
|--------------------------|
|--------------------------|
|--------------------------|
|--------------------------|
|--------------------------|


  C#m/B
    W
    |
    /

 ~~~~~~~~~~~
                     |---------------13:8----------------|
   +E.  +S   E. +S   S  S  S  S  S  S  S  S  S  S  S  S  S
|-(20)-(20)-20r(20)----------17-19-21-19-17-19-17----------|
|-------------------17-19-21----------------------19-17-19-|
|----------------------------------------------------------|
|----------------------------------------------------------|
|----------------------------------------------------------|
|----------------------------------------------------------|


  +W
   |
   /

   |----------------14:8------------------|  |----------------14:8------------------|
   S  S  S  S  S  S  S  S  S  S  S  S  S  S  S  S  S  S  S  S  S  S  S  S  S  S  S  S
|-17----------------17-21p19p17-19p17----------17----------------19-21p19-17-19p17----|
|----21-19-17-19-21-------------------21-19-21----21p19-17-19-21-------------------21-|
|-------------------------------------------------------------------------------------|
|-------------------------------------------------------------------------------------|
|-------------------------------------------------------------------------------------|
|-------------------------------------------------------------------------------------|


  Bm
   W
   |
   /

   |----------------14:8------------------|  |----------------14:8------------------|
   S  S  S  S  S  S  S  S  S  S  S  S  S  S  S  S  S  S  S  S  S  S  S  S  S  S  S  S
|-------17----------------17-21p19-17-19p17----------17----------------17-19-21-19-17-|
|-19-21----21-19-17-19-21-------------------21-19-21----21-19-17-19-21----------------|
|-------------------------------------------------------------------------------------|
|-------------------------------------------------------------------------------------|
|-------------------------------------------------------------------------------------|
|-------------------------------------------------------------------------------------|


  +W
   |
   /

   |-------------12:8---------------|  |-------------12:8---------------|
   S  S  S  S  S  S  S  S  S  S  S  S  S  S  S  S  S  S  S  S  S  S  S  S
|----19-17-------17-------------------------------------------------------|
|-21-------21-19----21-19-17-21-19-17S15-19-17-15S14-17-15-14S12-15-14-10-|
|-------------------------------------------------------------------------|
|-------------------------------------------------------------------------|
|-------------------------------------------------------------------------|
|-------------------------------------------------------------------------|


  C#m/B
   W
   |
   /

                                                        ~~~~
   |-------------13:8--------------|  |------6------|
   S  S S  S  S  S  S S  S S  S  S S  S S  S S     +E  +Q
|---------------------9h10p9---------------------------------|
|-14-12-9-10-12p10-12--------12-10-9-------------------------|
|------------------------------------11-9-11-9b11==(9)-(9)r--|
|------------------------------------------------------------|
|------------------------------------------------------------|
|------------------------------------------------------------|


  +W
   |
   /

   PM----------------|
   |--3--| |-3-| |-3-| |-----7-----|
   S s e e e e e e e e S S S S S S S
|------------------------------------|
|------------------------------------|
|----6-7-9-6-7---6-----6h7h9p7p6h7p6-|
|--------------9---7-9---------------|
|------------------------------------|
|------------------------------------|


  Bm
  W
  |
  /

  |---------13:8-----------|
  S S S S S S S S S S S S  S S  S S S S  S S S
|----------------------------9h10p9p7h9----7-9h===|
|---------------------------------------10--------|
|-----------6h7p6---6s7-9-10----------------------|
|-9p7---7-9-------9-------------------------------|
|-----9-------------------------------------------|
|-------------------------------------------------|


  +W
   |
   /

          \1/                         \1/         \1/
   E  S  +T    +T   +S   S  S  S  S  +S    +E  S  E    S
|-10s14-(14)--(14)-(14)p13p12p10-12-(12)--(12)p9-10h==12p|
|--------------------------------------------------------|
|--------------------------------------------------------|
|--------------------------------------------------------|
|--------------------------------------------------------|
|--------------------------------------------------------|


  C#m/B
  W
  |
  /

            \1/                       \1/           \1/
                        ~~
                              |-3--|                |--3--|
  E  T  T  +T    +E   S S  E  S  S S  T    +S   S  +S   S S
|-9h10h12-(12)--(12)p10p9h10h12p10p9h10---(10)h12-(12)p10p9--*|
|------------------------------------------------------------*|
|------------------------------------------------------------*|
|------------------------------------------------------------*|
|------------------------------------------------------------*|
|------------------------------------------------------------*|



Duration Legend
---------------
W - whole; H - half; Q - quarter; E - 8th; S - 16th; T - 32nd; X - 64th; a - acciaccatura
+ - note tied to previous; . - note dotted; .. - note double dotted
Uncapitalized letters represent notes that are staccato (1/2 duration)
Irregular groupings are notated above the duration line
Duration letters will always appear directly above the note/fret number it represents the
duration for.  Duration letters with no fret number below them represent rests.  Multi-
bar rests are notated in the form Wxn, where n is the number of bars to rest for.  Low
melody durations appear below the staff

Tablature Legend
----------------
 h   - hammer-on
 p   - pull-off
 b   - bend
 pb  - pre-bend
 r   - bend release (if no number after the r, then release immediately)
 /\  - slide into or out of (from/to "nowhere")
 s   - legato slide
 S   - shift slide
 - natural harmonic
[n]  - artificial harmonic
n(n) - tapped harmonic
 ~   - vibrato
 tr  - trill
 T   - tap
 TP  - trem. picking
 PM  - palm muting
\n/  - tremolo bar dip; n = amount to dip
 \n  - tremolo bar down
 n/  - tremolo bar up
/n\  - tremolo bar inverted dip
 =   - hold bend; also acts as connecting device for hammers/pulls
 <> - volume swell (louder/softer)
 x   - on rhythm slash represents muted slash
 o   - on rhythm slash represents single note slash

Misc Legend
-----------
 |  - bar
||  - double bar
||o - repeat start
o|| - repeat end
*|  - double bar (ending)
 :  - bar (freetime)
 $  - Segno
 &  - Coda
Tempo markers -  = BPM(8/16=s8/s16), where s8 = swing 8ths, s16 = swing 16ths

Tap to rate this tab
# A B C D E F G H I J K L M N O P Q R S T U V W X Y Z