Song name
# A B C D E F G H I J K L M N O P Q R S T U V W X Y Z

Malmsteen Yngwie - Trilogy Suite tab

Yngwie Malmsteen Trilogy suite intro
Tabbed by Spaggins
Feedback to Proffhiggins@AOL.com
             H  H     H  H     H  H     H  H  P  P     P  P     P  P
e-------------------------------------11-13-15-13-15-------------------|
B----------------------------12-13-15----------------15-13-12----------|
G-------------------12-13-15----------------------------------15-13-12-|
D----------12-13-15----------------------------------------------------|
A-15-14-15-------------------------------------------------------------|
E----------------------------------------------------------------------|

    P  P     P                               H  H     H  H     H  H
e----------------------3----------------------------------------------|
B----------------------3-------------------------------------13-15-16-|
G----------------------4----------------------------12-14-16----------|
D-15-13-12-------------5-------------------12-13-15-------------------|
A----------15-14-------5----------15-14-15----------------------------|
E----------------------3----------------------------------------------|

    H  H  P  P     P     P     P  P     P  P
e-13-15-16-15-13----------------------------------------4--------|
B----------------16-15\13-12----------------------------4--------|
G----------------------------15-13-12-------------------5--------|
D-------------------------------------15-13-12----------6--------|
A----------------------------------------------15-------6--------|
E-------------------------------------------------------4--------|

          H  H     H  H     H  H     H     H  H        H  H  P  P
e-------------------------------------------------15/16-19-20-19-16\15-|
B----------------------------------------15-16-18----------------------|
G----------------------------------16-17-------------------------------|
D-------------------------15-17-18-------------------------------------|
A-15-14/15-17-18-15-17-18----------------------------------------------|
E----------------------------------------------------------------------|

    P  P     P  P     P  P     P  P           whammy
e-------------------------------------------1--~~~~~~~~~]
B-18-16-15----------------------------------1--~~~~~~~~~]
G----------17-16-15-------------------------1--~~~~~~~~~]
D-------------------16-15-13----------------3--~~~~~~~~~]
A----------------------------17-15-14-------3--~~~~~~~~~]
E-------------------------------------------1--~~~~~~~~~]
Tap to rate this tab
 
# A B C D E F G H I J K L M N O P Q R S T U V W X Y Z