Guitaretab - guitar tabs
Song name
# A B C D E F G H I J K L M N O P Q R S T U V W X Y Z

Malmsteen Yngwie - Rising Force tab

#----------------------------------PLEASE NOTE---------------------------------#
#This file is the author's own work and represents their interpretation of the #
#song. You may only use this file for private study, scholarship, or research. #
#------------------------------------------------------------------------------#

RISING FORCE
As recorded by Yngwie J. Malmsteen
(From the 1988 Album ODYSSEY)

Transcribed by Jem7
	

Words and Music by Yngwie J. Malmsteen and Joe Lynn Turner

Gtr I (Eb Ab Db Gb Bb Eb) - 'Lead Gtr'
Gtr II (Eb Ab Db Gb Bb Eb) - 'Rhytm Gtr1'
Gtr III (Eb Ab Db Gb Bb Eb) - 'Rhytm Gtr2'
Gtr IV (Eb Ab Db Gb Bb Eb) - 'Intro'

    Q=230
   4/4
    Gtr IV
    W          +W           W          +W      4x
||--6--------|-(6)--------|-8--------|-(8)-----||
||o-7--------|-(7)--------|-8--------|-(8)----o||
||--6--------|-(6)--------|-9--------|-(9)-----||
||-----------|------------|----------|---------||
||o----------|------------|----------|--------o||
||-----------|------------|----------|---------||


   Intro
    Gtr I
    E E E E E E E E    E  E E E E E E E
||------------------|-------------------|
||o-----------------|-------------------|
||------------------|-------------------|
||------------------|-------------------|
||o-----------------|-------------------|
||--0-0-0-0---0---0-|-----0---0-0-0-0---|
|
|   Gtr IV
|   W                 +W
||--6---------------|-(6)---------------|
||o-7---------------|-(7)---------------|
||--6---------------|-(6)---------------|
||------------------|-------------------|
||o-----------------|-------------------|
||------------------|-------------------|


  E E E E E E E E    E  E E E E E E E
|-----------------|--------------------||
|-----------------|-------------------o||
|-----------------|--------------------||
|-----------------|--------------------||
|-----------------|-------------------o||
|-0-0-0-0---0---0-|-----0---0-0-0-0----||
|
| W                 +W
|-8---------------|-(8)----------------||
|-8---------------|-(8)---------------o||
|-9---------------|-(9)----------------||
|-----------------|--------------------||
|-----------------|-------------------o||
|-----------------|--------------------||


    E E E E E E E E    E  E E E E E E E   E E E E E E E E    E  E E E E E E E
||------------------|-------------------|-----------------|-------------------||
||o-----------------|-------------------|-----------------|------------------o||
||------------------|-------------------|-----------------|-------------------||
||------------------|-------------------|-----------------|-------------------||
||o-----------------|-------------------|-----------------|------------------o||
||--0-0-0-0---0---0-|-----0---0-0-0-0---|-0-0-0-0---0---0-|-----0---0-0-0-0---||
|
|   W                 +W                  W                 +W
||--6---------------|-(6)---------------|-8---------------|-(8)---------------||
||o-7---------------|-(7)---------------|-8---------------|-(8)--------------o||
||--6---------------|-(6)---------------|-9---------------|-(9)---------------||
||------------------|-------------------|-----------------|-------------------||
||o-----------------|-------------------|-----------------|------------------o||
||------------------|-------------------|-----------------|-------------------||
|
|   Gtrs II, III
|   W                 +W                  W                 +W
||------------------|-------------------|-----------------|-------------------||
||o-----------------|-------------------|-----------------|------------------o||
||--6---------------|-(6)---------------|-5---------------|-(5)---------------||
||--8---------------|-(8)---------------|-5---------------|-(5)---------------||
||o-----------------|-------------------|-----------------|------------------o||
||------------------|-------------------|-----------------|-------------------||


  Gtr II
        PM------------|                  PM----------------------|
  E E E E E E E E   E E E E E Q.     E E E E E E E E   +E  E E E E Q.
|-----------------|----------------|-----------------|------------------|
|-----------------|----------------|-----------------|------------------|
|-----------------|-----------7----|-----------------|------------------|
|-----------------|-----------7----|-----------------|------------------|
|-5h7---------5h7-|-----5h7---5----|-5h7-----------7-|-(7)-5------------|
|-------0-0-0-----|-0-0------------|-----0-0-0-0-0---|-------7-6-5-3----|
|
| Gtr III
|                   PM|                  PM----------------------|
| Q   Q   H         E E E E E Q.     E E E E E E E E   +E  E E E E Q.
|-----------------|----------------|-----------------|------------------|
|-----------------|----------------|-----------------|------------------|
|-4---------------|-----------7----|-----------------|------------------|
|-5---------------|-----------7----|-----------------|------------------|
|-----------------|-----5h7---5----|-5-7-----------7-|-(7)-5------------|
|-----------------|-0-0------------|-----0-0-0-0-0---|-------7-6-5-3----|


  Gtrs II, III
        PM------------|                  PM----------------------|
  E E E E E E E E   E E E E E Q.     E E E E E E E E   +E  E E E E Q.
|-----------------|----------------|-----------------|------------------|
|-----------------|----------------|-----------------|------------------|
|-----------------|-----------7----|-----------------|------------------|
|-----------------|-----------7----|-----------------|------------------|
|-5h7---------5h7-|-----5h7---5----|-5h7-----------7-|-(7)-5------------|
|-------0-0-0-----|-0-0------------|-----0-0-0-0-0---|-------7-6-5-3----|


    E E E E E E E E   E E E E E Q.     E E E E E E E E   +E  E E E E E E E
||------------------|----------------|-----------------|---------------------||
||o-----------------|----------------|-----------------|--------------------o||
||------------------|----------------|-----------------|---------------------||
||------------------|----------------|-----------------|---------------------||
||o-5h7---------5h7-|-----5h7---5----|-5h7-----------7-|-(7)-5--------------o||
||--------0-0-0-----|-0-0------------|-----0-0-0-0-0---|-------7-6-5-0-3p0---||


  Gtr II
                      ~~~~                          ~~~
  Q.   E +Q    Q     +W           Q.   E +Q   Q    +W
|-----------------|-------------|----------------|--------|
|-----------------|-------------|----------------|--------|
|-5----7-(7)---9--|--(9)--------|-4----5-(5)--7--|-(7)----|
|-----------------|-------------|----------------|--------|
|-----------------|-------------|----------------|--------|
|-----------------|-------------|----------------|--------|
|
| Gtr III
|                     ~~~~                          ~~~
| Q.   E +Q    Q     +W           Q.   E +Q   Q    +W
|-----------------|-------------|----------------|--------|
|-----------------|-------------|----------------|--------|
|-----------------|-------------|----------------|--------|
|-7----9-(9)--10--|-(10)--------|-5----7-(7)--9--|-(9)----|
|-----------------|-------------|----------------|--------|
|-----------------|-------------|----------------|--------|


                    ~~~
  Q.   E +Q   Q    +W           Q.   E +Q   Q     Q   E  E H
|----------------|------------|-----------------|---------------|
|----------------|------------|-----------------|---------------|
|-2----4-(4)--5--|-(5)--------|-----------------|---------------|
|----------------|------------|-2----4-(4)--5---|---------------|
|----------------|------------|-----------------|---------------|
|----------------|------------|-----------------|----<7>--------|
|
|                   ~~~
| Q.   E +Q   Q    +W           Q.   E +Q   Q     W
|----------------|------------|-----------------|---------------|
|----------------|------------|-----------------|---------------|
|----------------|------------|-----------------|---------------|
|-4----5-(5)--7--|-(7)--------|-5----7-(7)--9---|---------------|
|----------------|------------|-3----5-(5)--7\--|---------------|
|----------------|------------|-----------------|---------------|


   Verse 1-2
    Gtr II
        PM--------------------------|
    E E E E E E E E   E E E E E E E E
||------------------|-----------------|
||o-----------------|-----------------|
||------------------|-----------------|
||------------------|-----------------|
||o-5h7-------------|-----------------|
||------0-0-0-0-0-0-|-0-0-0-0-0-0-0-0-|


  PM----------|
  E E E E E E E E   +E  E E E E E E E
|-----------------|-------------------|
|-----------------|-------------------|
|-----------------|-------------------|
|-----------------|-------------------|
|---------------7-|-(7)-5-------------|
|-0-0-0-0-0-0-0---|-------7-6-5-0-3p0-|


      PM--------------------------|
  E E E E E E E E   E E E E E E E E
|-----------------|-----------------|
|-----------------|-----------------|
|-----------------|-----------------|
|-----------------|-----------------|
|-5h7-------------|-----------------|
|-----0-0-0-0-0-0-|-0-0-0-0-0-0-0-0-|


  PM----------|
  E E E E E E E E   +E  E E E E E E E
|-----------------|-------------------|
|-----------------|-------------------|
|-----------------|-------------------|
|-----------------|-------------------|
|---------------7-|-(7)-5-------------|
|-0-0-0-0-0-0-0---|-------7-6-5-0-3p0-|


      PM--------------------------|
  E E E E E E E E   E E E E E E E E
|-----------------|-----------------|
|-----------------|-----------------|
|-----------------|-----------------|
|-----------------|-----------------|
|-5h7-------------|-----------------|
|-----0-0-0-0-0-0-|-0-0-0-0-0-0-0-0-|


  PM----------|
  E E E E E E E E   +E  E E E E E E E
|-----------------|-------------------|
|-----------------|-------------------|
|-----------------|-------------------|
|-----------------|-------------------|
|---------------7-|-(7)-5-------------|
|-0-0-0-0-0-0-0---|-------7-6-5-0-3p0-|


      PM--------------------------|
  E E E E E E E E   E E E E E E E E
|-----------------|-----------------|
|-----------------|-----------------|
|-----------------|-----------------|
|-----------------|-----------------|
|-5h7-------------|-----------------|
|-----0-0-0-0-0-0-|-0-0-0-0-0-0-0-0-|


  PM----------|
  E E E E E E E E   +E  E E E E E E E
|-----------------|-------------------|
|-----------------|-------------------|
|-----------------|-------------------|
|-----------------|-------------------|
|---------------7-|-(7)-5-------------|
|-0-0-0-0-0-0-0---|-------7-6-5-0-3p0-|


 Chorus
  Q  E E E E E E   +Q   E E E E E E   +Q   E E E E E E   +Q   E E E E E E
|----------------|------------------|------------------|------------------|
|----------------|------------------|------------------|------------------|
|----------------|------------------|------------------|------------------|
|----------------|------------------|----------------5-|-(5)--------------|
|--------------5-|-(5)--5-5-5-5-5-5-|-(5)------------3-|-(3)--3-3-3-3-3-3-|
|-5--5-5-5-5-5---|----------------3-|-(3)--3-3-3-3-3---|------------------|


  Q  E E E E E E   +Q   E E E E E E
|----------------|------------------|
|----------------|------------------|
|----------------|------------------|
|----------------|------------------|
|-5--5-5-5-5-5-6-|-(6)--6-6-6-6-6-6-|
|----------------|------------------|


  H    H      H    H
|-----------|-----------|
|-----------|-----------|
|-----------|-4----5----|
|-5----7----|-----------|
|-----------|-----------|
|-----------|-----------|
|
| Gtr III
| H    H      H    H
|-----------|-----------|
|-----------|-----------|
|-----------|-----------|
|-----------|-5----7----|
|-7----9----|-----------|
|-----------|-----------|


  Q  E E E E E E   +Q   E E E E E E   Q  E E E E E E   +W
|----------------|------------------|----------------|--------|
|----------------|------------------|----------------|--------|
|--------------7-|-(7)--------7-----|--------------5-|-(5)----|
|-7------------7-|-(7)--------7-----|-5------------5-|-(5)----|
|-7------------5-|-(5)--5-5-5-5-5-5-|-5------------3-|-(3)----|
|-5--5-5-5-5-5---|------------------|-3--3-3-3-3-3---|--------|


  Q  E E E E E E   +Q.   E +Q   Q
|----------------|-----------------|
|----------------|-----------------|
|-7--------------|-----------------|
|-7--------------|-----------------|
|-5--5-5-5-5-5-6-|-(6)---6-(6)--6--|
|----------------|-----------------|


  1.
                                              3/4
  S  S  S  S  S  S  S  S  S  S  S  S  S  S E   Q   Q  Q
|------------------------------------11-12---|------------||
|------------------------------12h13---------|-----------o||
|---------------------11-13-14---------------|------------||
|------------10-12-14------------------------|------------||
|-9h10-12-14---------------------------------|-----------o||
|--------------------------------------------|----12------||


  2.
 4/4
  |-3-| |-3-| |-3-| |-3-|
  E E E E E E E E E E E E   Q  Q  Q  Q
|-8p7p5-------------------|-------------|
|-------8-7-5p4-----------|-------------|
|---------------5p4-------|-------------|
|-------------------7p5p4-|-------9-----|
|-------------------------|-7-----7-----|
|-------------------------|-------------|


  E E E E E E E E   E E E E E Q.     E E E E E E E E   +E  E E E E E Q
|-----------------|----------------|-----------------|------------------|
|-----------------|----------------|-----------------|------------------|
|-----------------|----------------|-----------------|------------------|
|-5---------------|----------------|-----------------|------------------|
|-5h7---------5h7-|-----5h7---5----|-5h7-----------7-|-(7)-5------------|
|-------0-0-0-----|-0-0------------|-----0-0-0-0-0---|-------7-6-5-0-4--|


  E E E E E E E E   E E E E E Q.     E E E E E E E E   +E  E E E E E E E
|-----------------|----------------|-----------------|-------------------|
|-----------------|----------------|-----------------|-------------------|
|-----------------|----------------|-----------------|-------------------|
|-----------------|----------------|-----------------|-------------------|
|-5h7---------5h7-|-----5h7---5----|-5h7-----------7-|-(7)-5-------------|
|-------0-0-0-----|-0-0------------|-----0-0-0-0-0---|-------7-6-5-0-3p0-|


  Gtr II
  Q.   E +Q    Q     +W           Q.   E +Q   Q    +W
|-----------------|-------------|----------------|--------|
|-----------------|-------------|----------------|--------|
|-5----7-(7)---9--|--(9)--------|-4----5-(5)--7--|-(7)----|
|-----------------|-------------|----------------|--------|
|-----------------|-------------|----------------|--------|
|-----------------|-------------|----------------|--------|
|
| Gtr III
| Q.   E +Q    Q     +W           Q.   E +Q   Q    +W
|-----------------|-------------|----------------|--------|
|-----------------|-------------|----------------|--------|
|-----------------|-------------|----------------|--------|
|-7----9-(9)--10--|-(10)--------|-5----7-(7)--9--|-(9)----|
|-----------------|-------------|----------------|--------|
|-----------------|-------------|----------------|--------|


  Q.   E +Q   Q    +W           Q.   E +Q   Q     Q   E  E H
|----------------|------------|-----------------|---------------|
|----------------|------------|-----------------|---------------|
|-2----4-(4)--5--|-(5)--------|-0----2-(2)--4---|---------------|
|----------------|------------|-2----4-(4)--5---|---------------|
|----------------|------------|-3----5-(5)--7\--|---------------|
|----------------|------------|-----------------|----<7>--------|
|
| Q.   E +Q   Q    +W           Q.   E +Q   Q     W
|----------------|------------|-----------------|---------------|
|----------------|------------|-----------------|---------------|
|----------------|------------|-0----2-(2)--4---|---------------|
|-4----5-(5)--7--|-(7)--------|-2----4-(4)--5---|---------------|
|----------------|------------|-3----5-(5)--7\--|---------------|
|----------------|------------|-----------------|---------------|


 Solo
  Gtr I
   S  S  S  S  S  S  S  S  S  S  S  S  S  S  E
|-15p12-------15p12-------15p12-------14p12----|
|-------12-12-------12-12-------12-12-------12-|
|----------------------------------------------|
|----------------------------------------------|
|----------------------------------------------|
|----------------------------------------------|
|
| Gtrs II, III
|              PM---------------|            PM
|  Q           E     E     E     E     E     E
|----------------------------------------------|
|----------------------------------------------|
|----------------------------------------------|
|----------------------------------------------|
|--7-----------------------------------7-------|
|--------------0-----0-----0-----0-----------0-|


   S  S  S  S  S  S  S  S  S  S  S  S  S  S  E    S  S  S  S  S  S  S  S  S  S  S  S  S  S  E
|-15p12-------17p12-------15p12-------14p12----|-15p12-------15p12-------15p12-------14p12----|
|-------12-12-------12-12-------12-12-------13-|-------13-13-------13-13-------13-13-------13-|
|----------------------------------------------|----------------------------------------------|
|----------------------------------------------|----------------------------------------------|
|----------------------------------------------|----------------------------------------------|
|----------------------------------------------|----------------------------------------------|
|
|              PM---------------------------|
|  Q           E     E     E     E     E     E    Q           E     E     E     E     E     E
|----------------------------------------------|----------------------------------------------|
|----------------------------------------------|----------------------------------------------|
|----------------------------------------------|----------------------------------------------|
|----------------------------------------------|--5-------------------------------------------|
|--7-------------------------------------------|--3-----------3-----3-----3-----3-----3-----3-|
|--------------0-----0-----0-----0-----0-----0-|----------------------------------------------|


   S  S  E  S  S  S  S  S  S  S  S  S  S  S  S
|-15p12----17p12-------15p12-------14p12----14-|
|-------13-------13-13-------13-13-------15----|
|----------------------------------------------|
|----------------------------------------------|
|----------------------------------------------|
|----------------------------------------------|
|
|  E     E  E     E     E     E     E     E
|----------------------------------------------|
|----------------------------------------------|
|----------------------------------------------|
|----------------------------------------------|
|--3-----3--2-----2-----0-----0----------------|
|-----------------------------------3-----3----|


   S  S  S  S  S  S  S  S  S  S  S  S  S  S  E    S  S  E  S  S  S  S  S  S  E  S  S  E
|-17p14----14h17p14----14h17p14----14h15p14----|-17p14----19p14----14h17p14-14-17p14------|
|-------15----------15----------12----------15-|-------15-------15-------------------15---|
|----------------------------------------------|------------------------------------------|
|----------------------------------------------|------------------------------------------|
|----------------------------------------------|------------------------------------------|
|----------------------------------------------|------------------------------------------|
|
|  E     E     E     E     E     E     E     E    E     E  E     E     E     E  E     E
|----------------------------------------------|------------------------------------------|
|----------------------------------------------|------------------------------------------|
|----------------------------------------------|------------------------------------------|
|----------------------------------------------|------------------------------------------|
|--5-----5-----5-----5-----5-----5-----5-----5-|--5-----5--2-----2-----3-----3--5-----5---|
|----------------------------------------------|------------------------------------------|


   S  S  S  S  Q   S S E Q      S  S  S  S  Q   S S E Q
|-19p15----15-19---6p3---7---|-19p15----15-19---7p3---7---|
|-------17-------------5-----|-------17-------------5-----|
|----------------------------|----------------------------|
|----------------------------|----------------------------|
|----------------------------|----------------------------|
|----------------------------|----------------------------|
|
|  E     E     E E E   E E E    E     E     E E E   E E E
|----------------------------|----------------------------|
|----------------------------|----------------------------|
|----------------------------|----------------------------|
|--2-----2-----2-2-2---2-2-2-|--2-----2-----2-2-2---2-2-2-|
|----------------------------|----------------------------|
|----------------------------|----------------------------|


   S  S  S  S  S  S  S  S  S  S  E  S  S  S  S
|-15p12-------15p12-------15p12----14p12-------|
|-------12-12-------12-12-------12-------12-12-|
|----------------------------------------------|
|----------------------------------------------|
|----------------------------------------------|
|----------------------------------------------|
|
|  E     E     E     E     E     E  E     E
|----------------------------------------------|
|----------------------------------------------|
|----------------------------------------------|
|--2-----2-----2-----2-----2-----2--2-----2----|
|----------------------------------------------|
|----------------------------------------------|


   S  S  S  S  S  S  S  S  S  S  S  S  S  S  S  S
|-15p12-------17p12-------15p12-------14p12----12-|
|-------12-12-------12-12-------12-12-------13----|
|-------------------------------------------------|
|-------------------------------------------------|
|-------------------------------------------------|
|-------------------------------------------------|
|
|  E     E     E     E     E     E     E     E
|-------------------------------------------------|
|-------------------------------------------------|
|-------------------------------------------------|
|--2-----2-----2-----2-----2-----2-----2-----2----|
|-------------------------------------------------|
|-------------------------------------------------|


   S  S  S  S  S  S  S  S  S  S  S  S  S  S  S  S    S  S  S  S  S  S  S  S  S  S  S  S  S  S  S  S
|-15p12-------15p12----12-15p12----12-14p12----12-|-15p12-------17p12-------15p12-------14p12----12-|
|-------13-13-------13----------13----------13----|-------13-13-------13-13-------13-13-------13----|
|-------------------------------------------------|-------------------------------------------------|
|-------------------------------------------------|-------------------------------------------------|
|-------------------------------------------------|-------------------------------------------------|
|-------------------------------------------------|-------------------------------------------------|
|
|  E     E     E     E     E     E     E     E       E     E     E     E     E     E     E     E
|-------------------------------------------------|-------------------------------------------------|
|-------------------------------------------------|-------------------------------------------------|
|-------------------------------------------------|-------------------------------------------------|
|-------------------------------------------------|-------------------------------------------------|
|--3-----3-----3-----3-----3-----3-----3-----3----|--3-----3-----2-----2-----0-----0----------------|
|-------------------------------------------------|--------------------------------------3-----3----|


   S  S  S  S  S  S  S  S  S  S  S  S  S  S  S  S
|-17p14----14-17p14----14-17p14----14-15p14----14-|
|-------15----------15----------15----------15----|
|-------------------------------------------------|
|-------------------------------------------------|
|-------------------------------------------------|
|-------------------------------------------------|
|
|  E     E     E     E     E     E     E     E
|-------------------------------------------------|
|-------------------------------------------------|
|-------------------------------------------------|
|-------------------------------------------------|
|--5-----5-----5-----5-----5-----5-----5-----5----|
|-------------------------------------------------|


   S  S  S  S  S  S  S  S  S  S  E  S  S  E    S  S  S  S  Q   S S S S Q
|-17p14-------19p14-------17p14-15-15p14----|-19p15----15-19---7p3---3-7---|
|-------15-17-------15-15----------------15-|-------17-------------5-------|
|-------------------------------------------|------------------------------|
|-------------------------------------------|------------------------------|
|-------------------------------------------|------------------------------|
|-------------------------------------------|------------------------------|
|
|  E     E     E     E     E     E  E     E    E     E     E E E   E   E E
|-------------------------------------------|------------------------------|
|-------------------------------------------|------------------------------|
|-------------------------------------------|------------------------------|
|-------------------------------------------|--2-----2-----2-2-2---2---2-2-|
|--5-----5-----2-----2-----3-----3--5-----5-|------------------------------|
|-------------------------------------------|------------------------------|

[ Tab from: http://www.guitaretab.com/m/malmsteen-yngwie/24044.html ]
   |---3---|
   E  E    E  E  E S S S S Q       S  S  S  S  Q    S S S S E E
|-19p15------19\---7p3---3-7/---|-20p17----17-20\---8p5---5-8---|
|---------17-----0-----5--------|-------17--------------5-------|
|-------------------------------|-------------------------------|
|-------------------------------|-------------------------------|
|-------------------------------|-------------------------------|
|-------------------------------|-------------------------------|
|
|  E    E     E  E E   E   E  E    E     E     E  E E   E   E E
|-------------------------------|-------------------------------|
|-------------------------------|-------------------------------|
|-------------------------------|-------------------------------|
|--2----2-----2--2-2---2---2--2-|-------------------------------|
|-------------------------------|--3-----3-----3--3-3---3---3-3-|
|-------------------------------|-------------------------------|


   S  S  S  S  E  E S S S S Q
|-20p17----17-20\---8p5---5-8/----|
|-------17--------------5---------|
|---------------------------------|
|---------------------------------|
|---------------------------------|
|---------------------------------|
|
|  E     E     E  E E   E   E  E
|---------------------------------|
|---------------------------------|
|---------------------------------|
|---------------------------------|
|--3-----3-----2--2-0---0---------|
|---------------------------3--3--|


   S  S  S  S  Q    S S S S Q
|-17p14----14-17\---5p2---2-5/---|
|-------15--------------3--------|
|--------------------------------|
|--------------------------------|
|--------------------------------|
|--------------------------------|
|
|  E     E     E  E E   E   E  E
|--------------------------------|
|--------------------------------|
|--------------------------------|
|--------------------------------|
|--5-----5-----5--5-5---5---5--5-|
|--------------------------------|


   S  S  S  S  Q    S S S S Q       S  S  S  S  E  E S S S S E  E
|-17p14----14-17\---5p2---2-5/---|-15p12----15-15\---3p0---0-3/----|
|-------15--------------3--------|-------13--------------1---------|
|--------------------------------|---------------------------------|
|--------------------------------|---------------------------------|
|--------------------------------|---------------------------------|
|--------------------------------|---------------------------------|
|
|  E     E     E  E E   E   E  E    E     E     E  E E   E   E  E
|--------------------------------|---------------------------------|
|--------------------------------|---------------------------------|
|--------------------------------|---------------------------------|
|--------------------------------|---------------------------------|
|--5-----5-----5--5-5---5---5--5-|--3-----3-----3--3-3---3---3--3--|
|--------------------------------|---------------------------------|


   S  S  S  S  E E S S S S S S S S   S S S S S S S S S S S S S S S S
|-15p12----12-15---3p0---0-3p0-----|-5p2---2-5p2---5-8p5---5-8p5-----|
|-------13-------------1-------1---|-----4-------4-------7-------7---|
|----------------------------------|---------------------------------|
|----------------------------------|---------------------------------|
|----------------------------------|---------------------------------|
|----------------------------------|---------------------------------|
|
|  E     E     E E E   E   E   E     E   E   E   E   E   E   E   E
|----------------------------------|---------------------------------|
|----------------------------------|---------------------------------|
|----------------------------------|---------------------------------|
|----------------------------------|---------------------------------|
|--3-----3-----3-3-3---3---3---3---|-2---2---2---2---2---2---2---2---|
|----------------------------------|---------------------------------|


   S S  S S  S S  S  S  S  S  S  S  S  S  S  S
|-11p8----8-11p8----11-14p11----11-14p11----14---|
|------10--------10----------13----------13------|
|------------------------------------------------|
|------------------------------------------------|
|------------------------------------------------|
|------------------------------------------------|
|
|  E    E    E    E     E     E     E     E
|------------------------------------------------|
|------------------------------------------------|
|------------------------------------------------|
|------------------------------------------------|
|--2----2----2----2-----2-----2-----2-----2------|
|------------------------------------------------|


              |---3---|  |---3---|  |---3---|
   S  E    S  E  E    E  E  E    E  E  E    E
|-17-14h==17-20p19p==17-----------------------|
|-----------------------20p19p==17-16---------|
|-------------------------------------17p==16-|
|---------------------------------------------|
|---------------------------------------------|
|---------------------------------------------|
|
|  E    E     E    E     E    E     E    E
|---------------------------------------------|
|---------------------------------------------|
|---------------------------------------------|
|---------------------------------------------|
|--2----2-----2----2-----2----2-----2----2----|
|---------------------------------------------|


   S  S  S  S  Q    Q        +Q           +W
|--------------------------------------|-------------------|
|--------------------------------------|-------------------|
|--------------------------------------|-------------------|
|-19p17p16-----------------------------|-------------------|
|----------19-18---19b20====(19)b21====|=(19)--------------|
|--------------------------------------|-------------------|
|
|  E     E     E E  E     E   E      E     Q   E E E E E E
|--------------------------------------|-------------------|
|--------------------------------------|-------------------|
|--------------------------------------|-------------------|
|--------------------------------------|-------------------|
|--2-----2-----2-2--2-----2---2------2-|---4---------------|
|--------------------------------------|---2---2-2-2-2-2-2-|


                                                                |--3---|
   +H..        +E          E  E E E S  S  E  +E   E   E  E  E E E E    E E E
|------------------------|--------------------------|------------------------|
|------------------------|----------8-10S11-(11)-10-|-8-11-10-8-7h8p===7---7-|
|------------------------|--------7-----------------|--------------------9---|
|------------------------|------8-------------------|------------------------|
|-(19)--------(19)r------|-9-10---------------------|------------------------|
|------------------------|--------------------------|------------------------|
|
|   E   E E E   E   Q.     Q    E E E     E   E   E   E  E  E E E   Q.
|------------------------|--------------------------|------------------------|
|------------------------|--------------------------|------------------------|
|------------------------|--------------------------|------------------------|
|------------------------|--------------------------|------------------------|
|-------------------5----|-4------------------------|---------------5--------|
|---2---2-2-2---2---3----|-2----2-2-2-----2---2---2-|-2--2--2-2-2---3--------|


                          |--3--| |--3---| |-3-|
  E E E a E Q   E E   Q   E E   E E E    E E E E
|-------------------|----------------------------|
|-----7-5h7-7---5---|-------------5h7h===8-5h7---|
|-7-9-------------7-|-6---6-7h==9--------------7-|
|-------------------|----------------------------|
|-------------------|----------------------------|
|-------------------|----------------------------|
|
| Q   E   E E E E E   E E E   E   E   Q.
|-------------------|----------------------------|
|-------------------|----------------------------|
|-------------------|----------------------------|
|-------------------|----------------------------|
|-4-----------------|-----------------5----------|
|-2---2---2-2-2-2-2-|-2-2-2---2---2---3----------|


  |-3-| |--3--|  |--3--|                     |--3---| |-3-|
  E E E E E   E  E E   E  S S S  S   H       E E    E E E E
|-------6h7h==9S10p9p==7\-6--------|------------------------|
|-5h7h8---------------------8-7h10p|=8-------7--------------|
|----------------------------------|-----------9p===7p6-----|
|----------------------------------|--------------------9p7-|
|----------------------------------|------------------------|
|----------------------------------|------------------------|
|
| Q     E   E    E   E    E   E      E E E E E   Q.
|----------------------------------|------------------------|
|----------------------------------|------------------------|
|----------------------------------|------------------------|
|----------------------------------|------------------------|
|-4--------------------------------|-------------5----------|
|-2-----2---2----2---2----2---2----|-2-2-2-2-2---3----------|


   ~~~~~
                        |---3---|  |---3---|  |---3----|
   W                    E  E    E  E  E    E  E  E     E  S  S  S  S
|-16-----------------|-----------------------17-16----------16-------|
|-17b19--------------|-19-17---16----16---19----------19-17----19-17-|
|--------------------|------------18---------------------------------|
|--------------------|-----------------------------------------------|
|--------------------|-----------------------------------------------|
|--------------------|-----------------------------------------------|
|
|  Q     E E E E E E    E    E     E    E     E    Q.
|--------------------|-----------------------------------------------|
|--------------------|-----------------------------------------------|
|--------------------|-----------------------------------------------|
|--------------------|-----------------------------------------------|
|--6-----------------|-----------------------------7-----------------|
|--4-----4-4-4-4-4-4-|--4----4-----4----4-----4----5-----------------|


   |---4:3----|  |----4:3-----|  |3|
   E  E  E    E  E  E    E    E  E Q
|--------------------------------------|
|-19-17-16------17-16-----------16-----|
|------------18---------18---17--------|
|--------------------------------------|
|--------------------------------------|
|--------------------------------------|
|
|  Q       E     E    E    E     E   E
|--------------------------------------|
|--------------------------------------|
|--------------------------------------|
|--------------------------------------|
|--6-----------------------------------|
|--4-------4-----4----4----4-----4---4-|


   |---3---|             |---3----|
   E  E    E  S  S  S  S E  E     E  S  S  S  S
|-----------------------------------------------|
|-14p13------14------------14-------14p13-------|
|---------16----16p14p13---------16-------16p14-|
|-----------------------------------------------|
|-----------------------------------------------|
|-----------------------------------------------|
|
|  E    E     E     E    E    Q.
|-----------------------------------------------|
|-----------------------------------------------|
|-----------------------------------------------|
|-----------------------------------------------|
|-----------------------------7-----------------|
|--4----4-----4-----4----4----5-----------------|


               |---3---|  |---3---|  |---3---|    |---3---|       |---3----|
   S  S  S  S  E  E    E  E  E    E  E  E    E    E  E    E  E E  E  E     E  S  S  S  S
|----------------------------------------------|------------------------------------------|
|-13-------------------------------------------|--------------------------------------13--|
|----16-14-13----14p==13---------13------------|-----------------------------13h14h16-----|
|-------------16---------16-14------16-14---13-|-16-14p==13------13-14h===16--------------|
|----------------------------------------------|------------16----------------------------|
|----------------------------------------------|------------------------------------------|
|
|  Q           E    E     E    E     E    E       E    E     E E  E    Q.
|----------------------------------------------|------------------------------------------|
|----------------------------------------------|------------------------------------------|
|----------------------------------------------|------------------------------------------|
|----------------------------------------------|------------------------------------------|
|--6-------------------------------------------|-----------------------7------------------|
|--4-----------4----4-----4----4-----4----4----|--4----4-----4-4--4----5------------------|


   |-3--|              |---3---|  |---3---|
   E  E E  S  S  S  S  E  E    E  E  E    E    W
|-------------------------------------------|--------------------|
|-14-16---14h16h17p14-16h17h==19-16h17h==19-|-19b21--------------|
|-------------------------------------------|--------------------|
|-------------------------------------------|--------------------|
|-------------------------------------------|--------------------|
|-------------------------------------------|--------------------|
|
|  Q       E     E     E    E     E    E       E    E E E E Q.
|-------------------------------------------|--------------------|
|-------------------------------------------|--------------------|
|-------------------------------------------|--------------------|
|-------------------------------------------|--------------------|
|--6----------------------------------------|---------------7----|
|--4-------4-----4-----4----4-----4----4----|--4----4-4-4-4-5----|


  |-3-|               |--3--|      |--3---|
  E E E E E E E E E   E E   E  E E Q    Q Q
|-------------------|-----------------------|
|-7h9p7-------------|-----------------------|
|-------9-8-6-------|-----------------------|
|-------------9-8-6-|-8h9p==8---------------|
|-------------------|---------11-9-8----7-8h|
|-------------------|-----------------------|
|
| Q     E E E E E E   E   E    E E E Q.
|-------------------|-----------------------|
|-------------------|-----------------------|
|-------------------|-----------------------|
|-------------------|-----------------------|
|-8-----------------|----------------9------|
|-6-----6-6-6-6-6-6-|-6---6----6-6-6-7------|


                      /       /
  Q.    E +Q    Q     H       H
|-------------------|-----------------|
|-------------------|-----------------|
|-------------------|-----------------|
|-------------------|-----------------|
|-9-----8-(8)p==6---|-5---------------|
|-------------------|---------7-------|
|
| Q   E E  E  E E E   E E E E E Q.
|-------------------|-----------------|
|-------------------|-----------------|
|-------------------|-----------------|
|-------------------|-----------------|
|-8-----------------|-----------9-----|
|-6---6-6--6--6-6-6-|-6-6-6-6-6-7-----|


  +Q.    E +H          +W
|--------------------|------------------|
|--------------------|------------------|
|--------------------|------------------|
|--------------------|------------------|
|--------------------|------------------|
|-(7)----6-(6)-------|-(6)--------------|
|
|  Q   E E  E  E E E    E  E E E E Q.
|--------------------|------------------|
|--------------------|------------------|
|--------------------|------------------|
|--------------------|------------------|
|--8-----------------|-------------9----|
|--6---6-6--6--6-6-6-|--6--6-6-6-6-7----|


   a  a  H           a  a  H
|-19-20p19tr20------19-20p19tr20-------|
|--------------------------------------|
|--------------------------------------|
|--------------------------------------|
|--------------------------------------|
|--------------------------------------|
|
|        Q      E E        E     E E E
|--------------------------------------|
|--------------------------------------|
|--------------------------------------|
|--------------------------------------|
|--------9-----------------------------|
|--------7------7-7--------7-----7-7-7-|


   |---3---|             |--3---|
   E  E    E  E  E  +E   E   E  E  T  T  T  T
|-20p17---19-17---------17--------17----------|
|---------------20-(20)-----19h20----20p19-17-|
|---------------------------------------------|
|---------------------------------------------|
|---------------------------------------------|
|---------------------------------------------|
|
|  E    E     E  E   E   Q.
|---------------------------------------------|
|---------------------------------------------|
|---------------------------------------------|
|---------------------------------------------|
|-----------------------10--------------------|
|--7----7-----7--7---7---8--------------------|


                                                                  ~~~
   |3-|                                  |---3---|  |---3---|
   Q  E  S  S  S  S  E  E  S  S  S  S    E  E    E  E  E    E  E  Q.
|-17----17----------------------------|--------------------------------|
|----20----20p19-17-20p19-20p19p17-16h|=17p16--------------------------|
|-------------------------------------|---------17p16------------16----|
|-------------------------------------|---------------19---17-16-------|
|-------------------------------------|--------------------------------|
|-------------------------------------|--------------------------------|
|
|  Q     E     E     E  E  E     E       E    E     E    E     E  Q.
|-------------------------------------|--------------------------------|
|-------------------------------------|--------------------------------|
|-------------------------------------|--------------------------------|
|-------------------------------------|--------------------------------|
|--9----------------------------------|--------------------------10----|
|--7-----7-----7-----7--7--7-----7----|--7----7-----7----7-----7--8----|


                  ~~~
                                            |3|
  E  Q.      +E   Q.        +Q    E E E  E  Q E
|---19------(19)-19------|-(19)-----7-8p=5--7---|
|------------------------|--------------------8-|
|------------------------|----------------------|
|------------------------|----------------------|
|------------------------|----------------------|
|------------------------|----------------------|
|
| Q     E E   E   E  E E     E  E E E E  Q.
|------------------------|----------------------|
|------------------------|----------------------|
|------------------------|----------------------|
|------------------------|----------------------|
|-9----------------------|--------------10------|
|-7-----7-7---7---7--7-7-|---7--7-7-7-7--8------|


          |--3--|           |--3--| |---3---| |-3-|
  E E E E E E   E E E   E E E E   E E E     E E E E
|-5-------------------|-----------------------------|
|---8p7p5-8p7p==5-----|-----4h5p==4-----------------|
|-----------------8-4h|=5h7---------7p5p====4-------|
|---------------------|-----------------------7p5p4-|
|---------------------|-----------------------------|
|---------------------|-----------------------------|
|
| Q   E E E   E   E E   E E E   E   E    Q.
|---------------------|-----------------------------|
|---------------------|-----------------------------|
|---------------------|-----------------------------|
|---------------------|-----------------------------|
|-9-------------------|-----------------10----------|
|-7---7-7-7---7---7-7-|-7-7-7---7---7----8----------|


   Verse 3
    Gtrs II, III
          PM--|       PM|                  PM------|
    E E E E E E E E   E E E E E Q.     E E E E E E E E   +E  E E E E E E E   4x
||------------------|----------------|-----------------|---------------------||
||o-----------------|----------------|-----------------|--------------------o||
||------------------|----------------|-----------------|---------------------||
||------------------|----------------|-----------------|---------------------||
||o-5h7---------5h7-|-----5h7---5----|-5h7-----------7-|-(7)-5--------------o||
||--------0-0-0-----|-0-0------------|-----0-0-0-0-0---|-------7-6-5-0-3p0---||


   Chorus
    Q  E E E E E E   +Q   E E E E E E   +Q   E E E E E E   +Q   E E E E E E
||-----------------|------------------|------------------|-------------------|
||o----------------|------------------|------------------|-------------------|
||-----------------|------------------|------------------|-------------------|
||-----------------|------------------|----------------5-|-(5)---------------|
||o--------------5-|-(5)--5-5-5-5-5-5-|-(5)------------3-|-(3)--3-3-3-3-3-3--|
||--5--5-5-5-5-5---|----------------3-|-(3)--3-3-3-3-3---|-------------------|


  Q  E E E E E E   +Q   E E E E E E
|----------------|------------------|
|----------------|------------------|
|----------------|------------------|
|----------------|------------------|
|-5--5-5-5-5-5-6-|-(6)--6-6-6-6-6-6-|
|----------------|------------------|


  Gtr II
  H    H      H    H     3x
|-----------|------------||
|-----------|-----------o||
|-----------|-4----5-----||
|-5----7----|------------||
|-----------|-----------o||
|-----------|------------||
|
| Gtr III
| H    H      H    H     3x
|-----------|------------||
|-----------|-----------o||
|-----------|------------||
|-----------|-5----7-----||
|-7----9----|-----------o||
|-----------|------------||


  Q  E E E E E E   +Q   E E E E E E   Q  E E E E E E
|----------------|------------------|----------------|
|----------------|------------------|----------------|
|--------------7-|-(7)--------7-----|--------------5-|
|-7------------7-|-(7)--------7-----|-5------------5-|
|-7------------5-|-(5)--5-5-5-5-5-5-|-5------------3-|
|-5--5-5-5-5-5---|------------------|-3--3-3-3-3-3---|


  +W           Q  E E E E E E   +Q.   E +Q   Q
|------------|----------------|-----------------|
|------------|----------------|-----------------|
|-(5)--------|-7--------------|-----------------|
|-(5)--------|-7--------------|-----------------|
|-(3)--------|-5--5-5-5-5-5-6-|-(6)---6-(6)--6--|
|------------|----------------|-----------------|


 4/4
  |-3-| |-3-|         |-3-|
  E E E E E E S S S S E E E   E E Q  H
|-8p7p5---------------------|-------------|
|-------8p7p5---------------|-------------|
|-------------8p7p5p4-------|-------------|
|---------------------7p5p4-|-------------|
|---------------------------|-7-9-7-------|
|---------------------------|-------------|


 Ending
  E E E E E E E E   E E E E E E E E   E  E E E E E E  E   E E E  E E E E E
|-----------------|-----------------|-------------------|------------------|
|-----------------|-----------------|-------------------|------------------|
|-----------------|-----------------|-------------------|------------------|
|-----------------|-----------------|-7-----------------|------------------|
|-5h7---------5h7-|-----5h7---------|-5-/7---------5-/7-|-----5-/7---------|
|-0---0-0-0-0-----|-0-0-----0-0-0-0-|------0-0-0-0------|-0-0------0-0-0-0-|


  E  E E E E E E  E   E E E  E E E E E   E  E E E E E E  E   E E E  E E E E E
|-------------------|------------------|-------------------|------------------|
|-------------------|------------------|-------------------|------------------|
|-------------------|------------------|-7-/9--------------|------------------|
|-7-/9---------7-/9-|-----7-/9---------|-7-/9---------7-/9-|-----7-/9---------|
|-5-/7---------5-/7-|-----5-/7---------|--------------5-/7-|-----5-/7---------|
|------0-0-0-0------|-0-0------0-0-0-0-|------0-0-0-0------|-0-0------0-0-0-0-|


  ~~
  E. S S  S  S S  S  S  S  S  S  S  S  S
|-------------------------------10-12-14p|
|----------------------10-12-13----------|
|--------------9-11-12-------------------|
|-9----9-10-12---------------------------|
|----------------------------------------|
|----------------------------------------|


   S  S  S  S  S S  S  S S  S  S  S S  S  S S
|-12-10------------------8-10-12-10p8---------|
|-------13-12-10-8-10-12--------------12-10-8-|
|---------------------------------------------|
|---------------------------------------------|
|---------------------------------------------|
|---------------------------------------------|


  S S  S S S  S S S  S S S S S S S S
|--------7-8-10-8p7--------------5-7-|
|-7-8-10------------10-8-7-5-7-8-----|
|------------------------------------|
|------------------------------------|
|------------------------------------|
|------------------------------------|


                                 3/4
                          |-3-|   |-3-|
  S S S S S S S S S S S S E E E   E E E E E  E  E
|-8-7-5-------------------------|-----------------|
|-------8-7-5---5h7p5-4---------|-----------------|
|-------------8---------7-5-4---|-----------------|
|-----------------------------7-|-5p4-------------|
|-------------------------------|-----7-6---<7>---|
|-------------------------------|-----------------|


  Gtrs II, III
  Q  Q  Q    Q  Q  Q    H.        +H.         Q    Q  Q
|-6--------|-7--------|-7-------|-(7)------|--7-----------*|
|-7--------|-7--------|-8-------|-(8)------|--8-----------*|
|-6--------|-8--------|-9-------|-(9)------|--9-----------*|
|----------|-9--------|-9-------|-(9)------|--9-----------*|
|----------|-9--------|-7-------|-(7)------|--7-----------*|
|-6--------|-7--------|---------|----------|--------------*|
|
| Gtr I
|                                  ~~~
| W          W          H.        +H.        +Q    Q  Q
|----------|----------|---------|----------|--------------*|
|----------|----------|---------|----------|--------------*|
|----------|----------|---------|----------|--------------*|
|----------|----------|-9-------|-(9)------|-(9)\---------*|
|----------|----------|---------|----------|--------------*|
|----------|----------|---------|----------|--------------*|



Duration Legend
---------------
W - whole; H - half; Q - quarter; E - 8th; S - 16th; T - 32nd; X - 64th; a - acciaccatura
+ - note tied to previous; . - note dotted; .. - note double dotted
Uncapitalized letters represent notes that are staccato (1/2 duration)
Irregular groupings are notated above the duration line
Duration letters will always appear directly above the note/fret number it represents the
duration for.  Duration letters with no fret number below them represent rests.  Multi-
bar rests are notated in the form Wxn, where n is the number of bars to rest for.  Low
melody durations appear below the staff

Tablature Legend
----------------
 h   - hammer-on
 p   - pull-off
 b   - bend
 pb  - pre-bend
 r   - bend release (if no number after the r, then release immediately)
 /\  - slide into or out of (from/to "nowhere")
 s   - legato slide
 S   - shift slide
 - natural harmonic
[n]  - artificial harmonic
n(n) - tapped harmonic
 ~   - vibrato
 tr  - trill
 T   - tap
 TP  - trem. picking
 PM  - palm muting
\n/  - tremolo bar dip; n = amount to dip
 \n  - tremolo bar down
 n/  - tremolo bar up
/n\  - tremolo bar inverted dip
 =   - hold bend; also acts as connecting device for hammers/pulls
 <> - volume swell (louder/softer)
 x   - on rhythm slash represents muted slash
 o   - on rhythm slash represents single note slash

Misc Legend
-----------
 |  - bar
||  - double bar
||o - repeat start
o|| - repeat end
*|  - double bar (ending)
 :  - bar (freetime)
 $  - Segno
 &  - Coda
Tempo markers -  = BPM(8/16=s8/s16), where s8 = swing 8ths, s16 = swing 16ths

Related for Rising Force tab