Guitaretab - guitar tabs
Song name
# A B C D E F G H I J K L M N O P Q R S T U V W X Y Z

Malmsteen Yngwie - Crucify tab

            VERY IMPORTANT
  1 Eb-   TUNE DOWN 1/2 STEP  FOR 1,2 ( IN THE SOLO IS NECESSARY,BUT I NOT TRANSCRIBE IT )
  2 Bb-
  3 E -   TUNE DOWN 1 1/2 STEP FOR 3,4,5,6
  4 B -
  5 F#-
  6 C#-

  ENJOY!

riff 1
P.M.............................
----------------------------------------------------------------------------
----------------------------------------------------------------------------
----------------------------------------------------------------------------
---------------------------------------6--7--9--10--10-9-7-6----------------
-------------------------------------------------------------8-7-5----------
-/12\--5-3-0-0-1-0-0-0-3-0-0-0-1-0-0-0------------------------------7-------

P.M.............................
----------------------------------------------------------------------------
----------------------------------------------------------------------------
------------------------------------------------7tr9------------------------
-----------------------------------6--7--9--10------------------------------
----------------------------------------------------------------------------
-5-3-0-0-1-0-0-0-3-0-0-0-1-0-0-0--------------------------------------------



You really think  That you are clever But you are quite insane

----------------------------------------------------------------------------
----------------------------------------------------------------------------
----------------------------------------------------------------------------
-2--------------------------------------------------------------------------
-2--------------------------------------------------------------------------
-0--------------------------------------------------------------------------


In Hell your soul Will burn forever   Bringing Eternal Pain


----------------------------------------------------------------------------
----------------------------------------------------------------------------
----------------------------------------------------------------------------
-2-2--------------------------------2-2-------------------------------------
-2-2--------------------------------2-2-------------------------------------
-0-0--------------------------------0-0-------------------------------------





  Riff 2
P.M ..............
                                          you tried to
----------------------------------------------------------------------------
----------------------------------------------------------------------------
-------------------------P--------------------------------------------------
---------------------P--7-6--P----2-----------------------------------------
--------------------7-8-----8-7---2-----------------------------------------
-5-3-0-0-0-1-0-3-0----------------0-----------------------------------------

P.M ..............                        crucify me
----------------------------------------------------------------------------
----------------------------------------------------------------------------
-------------------------P--------------------------------------------------
---------------------P--7-6--P----2-----------------------------------------
--------------------7-8-----8-7---2-----------------------------------------
-5-3-0-0-0-1-0-3-0----------------0-----------------------------------------

P.M ..............                   I KNOW YOU
----------------------------------------------------------------------------
----------------------------------------------------------------------------
-------------------------P--------------------------------------------------
---------------------P--7-6--P----2-----------------------------------------
--------------------7-8-----8-7---2-----------------------------------------
-5-3-0-0-0-1-0-3-0----------------0-----------------------------------------

P.M ..............                       WILL NEVER  SEE
----------------------------------------------------------------------------
----------------------------------------------------------------------------
-------------------------P--------------------------------------------------
---------------------P--7-6--P----2-------2---------------------------------
--------------------7-8-----8-7---2-------2----------X-/-PICK-SLIDE---------
-5-3-0-0-0-1-0-3-0----------------0-------0----------X-/--------------------

RIFF 3
C R U C I F Y  M E                                  C R U C I F Y  M E
  P.M.  ....  ....  ......  ....  ....  ............  ....  ....  ....  
.........
------------------------------------------------------------------------------
------------------------------------------------------------------------------
-2-----2-----2-----2-------5-----5-----5-------------2-----2-----2-----2------
-2-----2-----2-----2-----2-3-3-3-3-3-3-3-3-3-3-2-0-2-0-0-0-0-0-0-0-0-0-0------
-0-0-0-0-0-0-0-0-0-0-2-3-------------------------------------------------3-2-0
------------------------------------------------------------------------------

                              N O O O O O O O O O O O O O
C R U C I F Y  M E           P.M..................................
------------------------------------------------------------------------------
------------------------------------------------------------------------------
------------------------------------------------------------------------------
-2-----2-----2-----2---------2-2-2-2-2-2-2-2-2-2-2-2-2-2-2-2-2-2-2------------
-2-----2-----2-----2---------0-0-0-0-0-0-0-0-0-0-0-0-0-0-0-0-0-0-0------------
-0-0-0-0-0-0-0-0-0-0-0-0------------------------------------------------------

-----


riff 1                                 CRUCIFY ME
P.M.............................
----------------------------------------------------------------------------
----------------------------------------------------------------------------
----------------------------------------------------------------------------
---------------------------------------6--7--9--10--10-9-7-6----------------
-------------------------------------------------------------8-7-5----------
-------5-3-0-0-1-0-0-0-3-0-0-0-1-0-0-0------------------------------7-------


P.M.............................
----------------------------------------------------------------------------
----------------------------------------------------------------------------
------------------------------------------------7tr9------------------------
-----------------------------------6--7--9--10------------------------------
----------------------------------------------------------------------------
-5-3-0-0-1-0-0-0-3-0-0-0-1-0-0-0--------------------------------------------


riff 1                                 CRUCIFY
P.M.............................
----------------------------------------------------------------------------
----------------------------------------------------------------------------
----------------------------------------------------------------------------
---------------------------------------6--7--9--10--10-9-7-6----------------
-------------------------------------------------------------8-7-5----------
-------5-3-0-0-1-0-0-0-3-0-0-0-1-0-0-0------------------------------7-------


P.M.............................
----------------------------------------------------------------------------
----------------------------------------------------------------------------
------------------------------------------------7tr9------------------------
-----------------------------------6--7--9--10------------------------------
----------------------------------------------------------------------------
-5-3-0-0-1-0-0-0-3-0-0-0-1-0-0-0--------------------------------------------


riff 1                                 CRUCIFY  ME
P.M.............................
----------------------------------------------------------------------------
----------------------------------------------------------------------------
----------------------------------------------------------------------------
---------------------------------------6--7--9--10--10-9-7-6----------------
-------------------------------------------------------------8-7-5----------
-------5-3-0-0-1-0-0-0-3-0-0-0-1-0-0-0------------------------------7-------


P.M.............................
----------------------------------------------------------------------------
----------------------------------------------------------------------------
------------------------------------------------7tr9------------------------
-----------------------------------6--7--9--10------------------------------
----------------------------------------------------------------------------
-5-3-0-0-1-0-0-0-3-0-0-0-1-0-0-0--------------------------------------------


riff 1                                 CRUCIFYYYYYY  ME
P.M.............................
----------------------------------------------------------------------------
----------------------------------------------------------------------------
----------------------------------------------------------------------------
---------------------------------------6--7--9--10--10-9-7-6----------------
-------------------------------------------------------------8-7-5----------
-------5-3-0-0-1-0-0-0-3-0-0-0-1-0-0-0------------------------------7-------


P.M.............................
----------------------------------------------------------------------------
----------------------------------------------------------------------------
------------------------------------------------7tr9------------------------
-----------------------------------6--7--9--10------------------------------
----------------------------------------------------------------------------
-5-3-0-0-1-0-0-0-3-0-0-0-1-0-0-0--------------------------------------------



TABBER: DRAGAN KASLER
COUNTRY: SERBIA&MONTENEGRO
AGE: 14
[ Tab from: http://www.guitaretab.com/m/malmsteen-yngwie/25010.html ]
Related for Crucify tab