Guitaretab - guitar tabs
Song name
# A B C D E F G H I J K L M N O P Q R S T U V W X Y Z

Malmsteen Yngwie - Fury tab

#----------------------------------PLEASE NOTE---------------------------------#
#This file is the author's own work and represents their interpretation of the #
#song. You may only use this file for private study, scholarship, or research. #
#------------------------------------------------------------------------------#

FURY
As recorded by Yngwie Malmsteen
(From the 1986 Album TRILOGY)

Transcribed by Starnouf
	

Music by Yngwie Malmsteen

C/E
12 x 10 x 13 12
	
Em
12 x x 12 12 12
	
D5
x x 12 14 15 x
	
B7/D#
15 x 12 12 x x

Em(type 2)
12 x 14 12 12 0
	
C5
x x 10 12 13 x
	
Bsus4
x 14 16 x x x
	
B
x 14 16 16 x x

B(type 2)
x 14 13 11 12 x
	
Em(type 3)
12 x 14 12 12 x
	
Bm/F#
x x x 11 0 10
	
B5
x x 9 11 12 x

E/G#
x 11 x 9 12 x
	
Am
0 0 7 9 x 8
	
Am/G
x x x 0 5 8
	
B7
x x x 4 7 7

B/Eb
x x x 8 7 7
	
C/A
x x 7 9 x 8
	
G/E
x x x 9 8 7
	
G/D
x x x 7 8 7

Gm/C#
x x x 6 8 6
	
Bbm6/E
12 x 11 12 11 x
	
B/Eb(type 2)
x x 13 11 12 11
	
Ebm/F#
14 x 13 11 11 x

E5
12 14 14 x x x
	
C/A(type 2)
x 12 14 x 13 x

Gtr I (Eb Ab Db Gb Bb Eb) - 'Guitar 1'
Gtr II (Eb Ab Db Gb Bb Eb) - 'Guitar 2'
Gtr III (Eb Ab Db Gb Bb Eb) - 'Keyboards'

  H=112
 2/2
  Gtr I
  W          W          W          E E E E E E E E
|----------|----------|----------|-----------------||
|----------|----------|----------|-----------------||
|----------|----------|----------|-----------------||
|----------|----------|----------|-----------------||
|----------|----------|----------|-3-2-----2-------||
|----------|----------|----------|-----5-3---3-2-0-||


   Intro
    Em                                   C/E
    Gtr III
    W                 +W                 W                 +W
    |                  |                 |                  |
    /                  /                 /                  /

    E E E E E E E E    E E E E E E E E   E E E E E E E E    E E E E E E E E
||------------------|------------------|-----------------|--------------------||
||o-----------------|------------------|-----------------|-------------------o||
||------------------|------------------|-----------------|--------------------||
||------------------|------------------|-----------------|--------------------||
||o-----------2---3-|--2-5-3-2---------|-----------2---3-|--2-5-3-2----------o||
||--0-3-2-5-3---5---|----------5-3-2-0-|-0-3-2-5-3---5---|----------5-3-2-0---||


   Verse
    $
    Em
     W                       +W
     |                        |
     /                        /

            PM----------------------------------
    +E      E E E E E E E     E  E E E E E E E
||------------------------|--------------------|
||o-----------------------|--------------------|
||------------------------|--------------------|
||------------------------|--------------------|
||o-----------------------|--------------------|
||--(0)-----0-0-0-0-0-0-0-|---0--0-0-0-0-0-0-0-|
|
|   Gtr II
|    ~~~~~~~~~~~~~~~~~~~~~~~~~~~~~~~~~~~~~~~~~~~
|    W                       +W
||--21pb24================|=(21)---------------|
||o-----------------------|--------------------|
||------------------------|--------------------|
||------------------------|--------------------|
||o-----------------------|--------------------|
||------------------------|--------------------|


                                               D5
   +W                         +H..             E
    |                          |               |
    /                          /               /

 -------------------|
   +E   E E E E E E   E        E   E E E E E E E
|---------------------------|--------------------|
|---------------------------|--------------------|
|---------------------------|------------------7-|
|---------------------------|------------------7-|
|---------------------------|--3---2-----2-----5-|
|--(0)--0-0-0-0-0-0---0-----|--------5-3---5-3---|
|
|~~~~~~~
|  +H..              +S   S    W
|-(21)--------------(21)\---|--------------------|
|---------------------------|--------------------|
|---------------------------|--------------------|
|---------------------------|--------------------|
|---------------------------|--------------------|
|---------------------------|--------------------|


  D5                                  B7/D#
  +W                 +H..             E
   |                  |               |
   /                  /               /

         PM------------------------------
  +Q   E E E E E E    E   E E E E E E E
|------------------|--------------------|
|------------------|--------------------|
|-(7)--x-----------|--------------------|
|-(7)--7-----------|--------------------|
|-(5)--5-5-5-5-5-5-|--5---5-5-5-5-7-9---|
|------------------|------------------3-|
|
|  W                  W
|------------------|--------------------|
|------------------|--------------------|
|------------------|--------------------|
|------------------|--------------------|
|------------------|--------------------|
|------------------|--------------------|


                           B(type 2)                     Em(type 3)
  +H..                     E    +H..                     E
   |                       |     |                       |
   /                       /     /                       /

 ---------------------|    ~~~~~~~~~~ PM---------------|
  +E   E E E  E     E   E  E    +E    E       E  E E E E E
|----------------------------|-----------------------------|
|----------------------------|-----------------------------|
|----------------------------|-----------------------------|
|----------------------------|---------------------------9-|
|--------------------------6-|--(6)---6-------6--6-6-7-9-7-|
|-(3)--3-3-3--3-----3---3----|---------------------------0-|
|
|                       ~~~~              ~~~~~~~
|  H          Q        +Q       +E   +S   S  +H.
|------------14b15====(14)---|-(14)r(14)-12-(12)-----------|
|----------------------------|-----------------------------|
|----------------------------|-----------------------------|
|----------------------------|-----------------------------|
|----------------------------|-----------------------------|
|----------------------------|-----------------------------|


      Em(type 3)
      +W                  +W
       |                   |
       /                   /

          PM--------------------------------
      +E  E E E E E E E    E E E E E E E E
|-----------------------|------------------|
|-----------------------|------------------|
|-----------------------|------------------|
|-----(9)---------------|------------------|
|-----(7)---------------|------------------|
|-----(0)-0-0-0-0-0-0-0-|--0-0-0-0-0-0-0-0-|
|
|  a   W                   W
|-12\-------------------|------------------|
|-----------------------|------------------|
|-----------------------|------------------|
|-----------------------|------------------|
|-----------------------|------------------|
|-----------------------|------------------|


                                            D5
  +W                       +H..             E
   |                        |               |
   /                        /               /

 -----------------------------------------|
   E E E E E E E  E         E   E E E E E E E
|-----------------------|---------------------|
|-----------------------|---------------------|
|-----------------------|-------------------7-|
|-----------------------|-------------------7-|
|-----------------------|---3---2-----2-----5-|
|--0-0-0-0-0-0-0--0-----|---------5-3---5-3---|
|
|                           ~~~~~
|  H       Q   E  E        +W
|----------------21b24==|=(21)----------------|
|-----------------------|---------------------|
|-----------------------|---------------------|
|-----------------------|---------------------|
|-----------------------|---------------------|
|-----------------------|---------------------|


  D5                C5                  Em
   +H..             E   +H..            E
    |               |    |              |
    /               /    /              /

          PM------|           PM------|
   +Q     E E E E E E   +Q    E E E E E E
|---------------------|-------------------|
|---------------------|-------------------|
|--(7)--------------5-|-(5)---------------|
|--(7)--------------5-|-(5)---------------|
|--(5)----5-5-5-5-5-3-|-(3)---3-3-2-----x-|
|---------------------|-------------3p2-0-|
|
|  +E   E Q   H          W
|-(21)\---------------|-------------------|
|---------------------|-------------------|
|---------------------|-------------------|
|---------------------|-------------------|
|---------------------|-------------------|
|---------------------|-------------------|


  +W                  +W
   |                   |
   /                   /

      PM--------------------------------------|
  +E  E E E E E E E    E   E    E   E   E E E E
|-------------------|---------------------------||
|-------------------|---------------------------||
|-------------------|---------------------------||
|-------------------|---------------------------||
|-------------------|---------------------------||
|-(0)-0-0-0-0-0-0-0-|--0---0----0---0---0-0-0-0-||
|
|                                       ~
|                      |--3---| |--3--|
|  W                   E E    E E E   E H
|-------------------|---------------------------||
|-------------------|---------------------------||
|-------------------|-----------------7-9-------||
|-------------------|-------------9-------------||
|-------------------|--7-9---10-7---------------||
|-------------------|---------------------------||


 Pre-Chorus
  Em
   W
   |
   /

   PM----------------------------------------------
   E     E     E     E     E     E     E     E
|-------------------------------------------------|
|-------------------------------------------------|
|-------------------------------------------------|
|-------------------------------------------------|
|--7-----7-----7-----7-----7-----7-----7-----7----|
|-------------------------------------------------|
|
|  T           T           T           T
|  S  S  S  S  S  S  S  S  S  S  S  S  S  S  S  S
|-19p12h15p12-19p12h15p12-19p12h15p12-19p12h15p12-|
|-------------------------------------------------|
|-------------------------------------------------|
|-------------------------------------------------|
|-------------------------------------------------|
|-------------------------------------------------|


  +W
   |
   /

 -------------------------------------------|
   E     E     E     E     E     E     E     E
|-------------------------------------------------|
|-------------------------------------------------|
|-------------------------------------------------|
|-------------------------------------------------|
|--7-----7-----7-----7-----7-----7-----7-----7----|
|-------------------------------------------------|
|
|  T           T           T           T
|  S  S  S  S  S  S  S  S  S  S  S  S  S  S  S  S
|-19p12h15p12-19p12h15p12-19p12h15p12-19p12h15p12-|
|-------------------------------------------------|
|-------------------------------------------------|
|-------------------------------------------------|
|-------------------------------------------------|
|-------------------------------------------------|


  Bsus4
   W
   |
   /

   W
|--0----------------------------------------------|
|--0----------------------------------------------|
|--4----------------------------------------------|
|--4----------------------------------------------|
|--2----------------------------------------------|
|-------------------------------------------------|
|
|  T           T           T           T
|  S  S  S  S  S  S  S  S  S  S  S  S  S  S  S  S
|-19p12h15p12-19p12h15p12-19p12h15p12-19p12h15p12-|
|-------------------------------------------------|
|-------------------------------------------------|
|-------------------------------------------------|
|-------------------------------------------------|
|-------------------------------------------------|


  B
   W
   |
   /

   W
|-------------------------------------------------|
|-------------------------------------------------|
|--4----------------------------------------------|
|--4----------------------------------------------|
|--2----------------------------------------------|
|-------------------------------------------------|
|
|  T           T           T           T
|  S  S  S  S  S  S  S  S  S  S  S  S  S  S  S  S
|-19p11h14p11-19p11h14p11-19p11h14p11-19p11h14p11-|
|-------------------------------------------------|
|-------------------------------------------------|
|-------------------------------------------------|
|-------------------------------------------------|
|-------------------------------------------------|


  Em(type 3)
   W
   |
   /

               PM----------------------------------
   Q           E     E     E     E     E     E
|--7----------------------------------------------|
|--8----------------------------------------------|
|--9----------------------------------------------|
|--9----------------------------------------------|
|--7-----------7-----7-----7-----7-----7-----7----|
|-------------------------------------------------|
|
|  T           T           T           T
|  S  S  S  S  S  S  S  S  S  S  S  S  S  S  S  S
|-19p12h15p12-20p12h15p12-19p12h15p12-20p12h15p12-|
|-------------------------------------------------|
|-------------------------------------------------|
|-------------------------------------------------|
|-------------------------------------------------|
|-------------------------------------------------|


  +W
   |
   /

 -------------------------------------------|
   E     E     E     E     E     E     E     E
|-------------------------------------------------|
|-------------------------------------------------|
|-------------------------------------------------|
|-------------------------------------------------|
|--7-----7-----7-----7-----7-----7-----7-----7----|
|-------------------------------------------------|
|
|  T           T           T           T
|  S  S  S  S  S  S  S  S  S  S  S  S  S  S  S  S
|-19p12h15p12-20p12h15p12-19p12h15p12-20p12h15p12-|
|-------------------------------------------------|
|-------------------------------------------------|
|-------------------------------------------------|
|-------------------------------------------------|
|-------------------------------------------------|


  Bm/F#
   W
   |
   /

   W
|--0----------------------------------------------|
|--0----------------------------------------------|
|--4----------------------------------------------|
|--4----------------------------------------------|
|--2----------------------------------------------|
|-------------------------------------------------|
|
|  T           T           T           T
|  S  S  S  S  S  S  S  S  S  S  S  S  S  S  S  S
|-19p12h14p12-19p12h14p12-19p12h14p12-19p12h14p12-|
|-------------------------------------------------|
|-------------------------------------------------|
|-------------------------------------------------|
|-------------------------------------------------|
|-------------------------------------------------|


                                  To Coda
  B5
   W
   |
   /

   W
|-------------------------------------------||
|-------------------------------------------||
|--4----------------------------------------||
|--4----------------------------------------||
|--2----------------------------------------||
|-------------------------------------------||
|
|  T           T           T
|  S  S  S  S  S  S  S  S  S  S  S  S  E. S
|-19p11h14p11-19p11h14p11-19p11h14p11-14s19-||
|-------------------------------------------||
|-------------------------------------------||
|-------------------------------------------||
|-------------------------------------------||
|-------------------------------------------||


 Chorus
  E/G#               C/A     Am/G      B7      B/Eb      G/E     G/D
   W                 H       H         H       H         H       H
   |                 |       |         |       |         |       |
   /                 /       /         /       /         /       /

   PM------------------------------------------------------------------|
   E E E E E E E E   E E E E E E E E   E E E E E E E E   E E E E E E E E
|------------------|-----------------|-----------------|-----------------|
|------------------|-----------------|-----------------|-----------------|
|------------------|-----------------|-----------------|-----------------|
|------------------|-----------------|-----------------|-----------------|
|------------------|-----------------|-2-2-2-2-6-6-6-6-|-7-7-7-7-5-5-5-5-|
|--4-4-4-4-4-4-4-4-|-5-5-5-5-3-3-3-3-|-----------------|-----------------|
|
|  ~~
|  W                 W                 W                 W
|-19---------------|-----------------|-----------------|-----------------|
|------------------|-----------------|-----------------|-----------------|
|------------------|-----------------|-----------------|-----------------|
|------------------|-----------------|-----------------|-----------------|
|------------------|-----------------|-----------------|-----------------|
|------------------|-----------------|-----------------|-----------------|


  Gm/C#             B/Eb    Gm/C#              B7        Gm/C#   B/Eb
  W                 H       H         +H       H         H       H
  |                 |       |          |       |         |       |
  /                 /       /          /       /         /       /

  PM-------------------------------------------------------------------|
  E E E E E E E E   E E E E E E E E    E E E E E E E E   E E E E E E E E
|-----------------|-----------------|------------------|-----------------|
|-----------------|-----------------|------------------|-----------------|
|-----------------|-----------------|------------------|-----------------|
|-----------------|-----------------|------------------|-----------------|
|-4-4-4-4-4-4-4-4-|-6-6-6-6-4-4-4-4-|--4-4-4-4-2-2-2-2-|-4-4-4-4-6-6-6-6-|
|-----------------|-----------------|------------------|-----------------|


  E/G#              C/A     Am/G      B7      B/Eb      G/E     G/D
  W                 H       H         H       H         H       H
  |                 |       |         |       |         |       |
  /                 /       /         /       /         /       /

  PM------------------------------------------------------------------|
  E E E E E E E E   E E E E E E E E   E E E E E E E E   E E E E E E E E
|-----------------|-----------------|-----------------|-----------------|
|-----------------|-----------------|-----------------|-----------------|
|-----------------|-----------------|-----------------|-----------------|
|-----------------|-----------------|-----------------|-----------------|
|-4-4-4-4-4-4-4-4-|-----------------|-2-2-2-2-6-6-6-6-|-7-7-7-7-5-5-5-5-|
|-----------------|-5-5-5-5-3-3-3-3-|-----------------|-----------------|


  Gm/C#             B/Eb    Gm/C#              B7        Gm/C#   B/Eb
  W                 H       H         +H       H         H       H
  |                 |       |          |       |         |       |
  /                 /       /          /       /         /       /

  PM-------------------------------------------------------------------|
  E E E E E E E E   E E E E E E E E    E E E E E E E E   E E E E E E E E
|-----------------|-----------------|------------------|-----------------|
|-----------------|-----------------|------------------|-----------------|
|-----------------|-----------------|------------------|-----------------|
|-----------------|-----------------|------------------|-----------------|
|-4-4-4-4-4-4-4-4-|-6-6-6-6-4-4-4-4-|--4-4-4-4-2-2-2-2-|-4-4-4-4-6-6-6-6-|
|-----------------|-----------------|------------------|-----------------|


                                      1.
  Bbm6/E  B/Eb(type Bbm6/E  Ebm/F#    E5
  H       H         H       H         W           W
  |       |         |       |         |
  /       /         /       /         /

  PM------------------------------|
  E E E E E E E E   E E E E E E E E   W           E E E E E E E E
|-----------------|-----------------|-----------|------------------||
|-----------------|-----------------|-----------|-----------------o||
|-----------------|-----------------|-----------|------------------||
|-----------------|-----------------|-2---------|---------------2--||
|-7-7-7-7-6-6-6-6-|-7-7-7-7-9-9-9-9-|-2---------|-3-2-----2-----2-o||
|-----------------|-----------------|-0---------|-----5-3---3-2-0--||


  2.
  E5             E5
   W             +W
   |              |
   /              /

   W             +W
|--------------|--------------------------------------|
|--------------|--------------------------------------|
|--------------|--------------------------------------|
|--2-----------|-(2)----------------------------------|
|--2-----------|-(2)----------------------------------|
|--0-----------|-(0)----------------------------------|
|
| Gtr II
|  ~~~~~
|                 |--3---|  |--3--|  |--3--|  |--3--|
|  W              E   E  E  E  E  E  E  E  E  E  E  E
|--------------|-15--12-14-15-14-12-19-12-14-15-14-12-|
|-15b17--------|--------------------------------------|
|--------------|--------------------------------------|
|--------------|--------------------------------------|
|--------------|--------------------------------------|
|--------------|--------------------------------------|


   W                                      W
  +W                                      E          E   E  E E E E E
|--------------------------------------|------------------------------||
|--------------------------------------|------------------------------||
|--------------------------------------|------------------------------||
|-(2)----------------------------------|------------------------------||
|-(2)----------------------------------|--3----------2--------2-------||
|-(0)----------------------------------|-----------------5--3---3-2-0-||
|
|  |--3---|  |--3--|  |--3--|  |--3--|    |---3---|
|  E   E  E  E  E  E  E  E  E  E  E  E    E      +Q     +Q    H
|-17--12-14-15-14-12-19-12-14-15-14-12-|-17b19==(17)r==(17)-----------||
|--------------------------------------|------------------------------||
|--------------------------------------|------------------------------||
|--------------------------------------|------------------------------||
|--------------------------------------|------------------------------||
|--------------------------------------|------------------------------||


 Guitar Solo
               PM------------------------------------
   Q           e     e     e     e       e     e
|---------------------------------------------------|
|---------------------------------------------------|
|--4------------------------------------------------|
|--4------------------------------------------------|
|--2-----------2-----2-----2-----2-------2-----2----|
|---------------------------------------------------|
|
|  S  S  S  S  S  S  S  S  S  S  S   S   S  S  S  S
|----------17-20-19-17----19-17---------17-17-------|
|-17h19-20-------------20-------20-(19)-------20p19p|
|---------------------------------------------------|
|---------------------------------------------------|
|---------------------------------------------------|
|---------------------------------------------------|


 --------------------------------|
   e     e          e    e        e     Q              E
|-----------------------------------------------------------|
|-----------------------------------------------------------|
|---------------------------------------5--------------4----|
|---------------------------------------5--------------4----|
|--2-----2----------2----2--------2-----3--------------2----|
|-----------------------------------------------------------|
|
|                   |---3---|                 |--3--|
|  S  S  S  T   T   E  E    E  a  S  S  S  S  S  S  S  S  S
|-----------------------------------------------------------|
|-17-20-19-17p(16)-19-17---16-16h17p16-------16h17p16-------|
|--------------------------------------17p16----------17p16-|
|-----------------------------------------------------------|
|-----------------------------------------------------------|
|-----------------------------------------------------------|


                PM------------------------------------
  +Q            e     e     e     e     e      e
|----------------------------------------------------|
|----------------------------------------------------|
|-(4)------------------------------------------------|
|-(4)------------------------------------------------|
|-(2)-----------2-----2-----2-----2-----2------2-----|
|----------------------------------------------------|
|
|  S   S  S  S  S  S  S  S  S  S  S  S  S  S   S   S
|----------------------------------------------------|
|-------------------------------------------------16h|
|-17--16----------------------------15S16h17p(16)----|
|--------19p17p16----17p16S14h16h17------------------|
|-----------------19---------------------------------|
|----------------------------------------------------|


 ------------------------------------------------|
   e       e         e      e     e     e          e               E
|--------------------------------------------------------------------------------|
|--------------------------------------------------------------------------------|
|------------------------------------------------------------------4-------------|
|------------------------------------------------------------------4-------------|
|--3-------2----------------------2--------------------------------2-------------|
|--------------------5------3-----------5----------3-----------------------------|
|
|                                          /1.5____\1.5____/1.5____\1.5____/1.5___
|  |------5------|
|  S  S  S    S  S  +S   S  S  S  S  S  S  S      +S      +S      +S      +S
|-------15h==17h19-(19)p17-19p17-15----15-19-----(19)----(19)----(19)----(19)----|
|-17h19-----------------------------19-------------------------------------------|
|--------------------------------------------------------------------------------|
|--------------------------------------------------------------------------------|
|--------------------------------------------------------------------------------|
|--------------------------------------------------------------------------------|


               PM-------------------------------------
   +Q          e     e       e     e     e     e
|----------------------------------------------------|
|----------------------------------------------------|
|--(4)-----------------------------------------------|
|--(4)-----------------------------------------------|
|--(2)---------2-----2-------2-----2-----2-----2-----|
|----------------------------------------------------|
|
|   \1.5
|  +S     +E.  S  S  S.  T  +S  S  S  S  S  S  T  S.
|-(19)---(19)-20p17---------------17-------17\---14--|
|-------------------19--20-(20)-x----19p16-----------|
|----------------------------------------------------|
|----------------------------------------------------|
|----------------------------------------------------|
|----------------------------------------------------|


 -------------------------|
   e     e     e     e     e     Q              E
|------------------------------------------------------|
|------------------------------------------------------|
|--------------------------------5--------------4------|
|--------------------------------5--------------4------|
|--2-----2-----2-----2-----2-----3--------------2------|
|------------------------------------------------------|
|
|  S  S  S  S  S  S  S  S  S  S  S  S  S  T  T  S  S
|------------------------------------------------------|
|-17p14s16h17-19-17p16---------------------------------|
|----------------------17p16S14------------------------|
|-------------------------------17-16-14S13h14-16-14p==|
|------------------------------------------------------|
|------------------------------------------------------|


                 PM--------------------
  +Q             e     e  e     e e e
|-------------------------------------|
|-------------------------------------|
|-(4)---------------------------------|
|-(4)---------------------------------|
|-(2)------------2-----2--2-----2-2-2-|
|-------------------------------------|
|
|                         \1.5_________
|                         ~~~~~~
|  S   S  S  S   S  S  E  H
|-------------------------------------|
|-------------------------------------|
|-------------------------------------|
|-13----------------------------------|
|-----15p14p12------------------------|
|---------------15-14-12-11-----------|


                           Keyboard solo
 -------------------|          PM--------------------|
    e  e e e   e  e e E     Q  e e e e e e   e e e e e Q  E
|-----------------------||-----------------|----------------|
|-----------------------||o----------------|----------------|
|---------------------4-||--4--------------|-----------5--4-|
|---------------------4-||--4--------------|-----------5--4-|
|---3--2-------2------2-||o-2--2-2-2-2-2-2-|-2-2-2-2-2-3--2-|
|--------5-3------5-3---||-----------------|----------------|
|
|   /
|              ~~~~
|  +H         +H            W                W
|-----------------------||-----------------|----------------|
|-----------------------||o----------------|----------------|
|-----------------------||-----------------|----------------|
|-----------------------||-----------------|----------------|
|-----------------------||o----------------|----------------|
|-(11)-------(11)-------||-----------------|----------------|

[ Tab from: http://www.guitaretab.com/m/malmsteen-yngwie/25011.html ]
                   1.,2.               3.
     PM------------------------|       PM----------| ~
  Q  e e e e e e   e e e e e e e E  3x e e e e e e e E
|----------------|------------------||-----------------||
|----------------|-----------------o||-----------------||
|-4--------------|---------------4--||-----------------||
|-4--------------|---------------4--||-7-6-4---6-------||
|-2--2-2-2-2-2-2-|-3-2-----2-----2-o||-------7---7-6-4-||
|----------------|-----5-3---5-3----||-----------------||
|
| W                W                3x H       H
|----------------|------------------||---------9S======||
|----------------|-----------------o||-----------------||
|----------------|------------------||-----------------||
|----------------|------------------||-----------------||
|----------------|-----------------o||-----------------||
|----------------|------------------||-----------------||


 Guitar Solo 2
      PM--------------------------------------|
  +E  E E E  E E E E     E   E  E  E  E  E  E  E
|--------------------|------------------------------------|
|--------------------|------------------------------------|
|--------------------|------------------------------------|
|--------------------|------------------------------------|
|-(4)-4-4-4--4-4-4-4-|---4---4--4--4--4--4--4--4----------|
|--------------------|------------------------------------|
|
|            ~~
|                            |--3--|  |--3--|
|  H         H          +Q   E  E  E  E  E  E  S  S  S  S
|-21-----------------|------------12-------12-14----12-14-|
|-----------14-------|-(14)-14-16----14-16-------16-------|
|--------------------|------------------------------------|
|--------------------|------------------------------------|
|--------------------|------------------------------------|
|--------------------|------------------------------------|


   PM------------------------------------------
   E    E     E    E     E    E     E    E
|---------------------------------------------|
|---------------------------------------------|
|---------------------------------------------|
|---------------------------------------------|
|--4----4-----4----4-----4----4-----4----4----|
|---------------------------------------------|
|
|  |---3---|  |---3---|  |---3---|  |---3---|
|  E  E    E  E  E    E  E  E    E  E  E    E
|-16p14---12-16s17p==16p14-16---14---------14-|
|----------------------------------17-16------|
|---------------------------------------------|
|---------------------------------------------|
|---------------------------------------------|
|---------------------------------------------|


 ---------------------------------------|  ~
   e     e     e     e     e     e      e  E
|---------------------------------------------|
|---------------------------------------------|
|---------------------------------------------|
|--7-----6-----4-----------6------------------|
|--------------------7-----------7------6--4--|
|---------------------------------------------|
|
|                                    ~~~~
|  S  S  S  S  S  S  S  S  S  S  E  +Q
|---------------------------------------------|
|-17-16-14-17p16p14s13-16-14-13-14-(14)-------|
|---------------------------------------------|
|---------------------------------------------|
|---------------------------------------------|
|---------------------------------------------|


          PM--------------------------------------------
  +E      E     E     E     E     E     E     E
|------------------------------------------------------|
|------------------------------------------------------|
|------------------------------------------------------|
|------------------------------------------------------|
|-(4)-----4-----4-----4-----4-----4-----4-----4--------|
|------------------------------------------------------|
|
|  S   S  S  S  S  S  S  S  S  S  S  S  S  S  S  S
|-----------16-21----------18--------------------------|
|-17-----17-------17-21p17----17-21-19p17----17--------|
|-----18----------------------------------20----20b22==|
|------------------------------------------------------|
|------------------------------------------------------|
|------------------------------------------------------|


 ---------------------------|
    E  E  E E   E  E   E     E
|---------------------------------|
|---------------------------------|
|---------------------------------|
|---------------------------------|
|---4--4--4-4---4--4---4-----4----|
|---------------------------------|
|
|  +Q     Q    +Q      S  S  S  S
|---------------------------------|
|------------------------------14-|
|-(20)---20r==(20)----------13----|
|------------------------14-------|
|--------------------/16----------|
|---------------------------------|


   PM-------------------------------------------------------------------| ~
   E    E     E E   E  E  E    E            e  e   e    e          e  e e E
|---------------------------------------|-----------------------------------|
|---------------------------------------|-----------------------------------|
|---------------------------------------|-----------------------------------|
|---------------------------------------|---7--6---4---------------6--------|
|--4----4-----4-4---4--4--4----4--------|---------------7-------------7-6-4-|
|---------------------------------------|-----------------------------------|
|
|             ~~~~~~~~~                                            ~~~~
|  |---3---|              |---3---|                |---3---|
|  E  E    E  Q    +Q     E  E    E        +Q     +E  E    E      +H
|-16p12------16---(16)---12-------------|-----------------------------------|
|---------14----------------14---12b14==|=(12)r==(12)-9---------------------|
|---------------------------------------|-----------------11b13==(11)-------|
|---------------------------------------|-----------------------------------|
|---------------------------------------|-----------------------------------|
|---------------------------------------|-----------------------------------|


         PM--------------------------------|
  +E     E     E    E     E     E     E    E
|------------------------------------------------|
|------------------------------------------------|
|------------------------------------------------|
|------------------------------------------------|
|-(4)----4-----4----4-----4-----4-----4----4-----|
|------------------------------------------------|
|
|  |---3----|  |---3---|              |---3---|
|  E   E    E  E  E    E  S  S  S  S  E  E    E
|-----16---21p16---------------------------------|
|----------------17---------------17-19-21-------|
|-18------------------18-17-19-21------------17--|
|------------------------------------------------|
|------------------------------------------------|
|------------------------------------------------|


   PM------------------------------------------------------
   E     E     E       E    E  E E E     E  E E E E E E E
|------------------------------------|--------------------|
|------------------------------------|--------------------|
|------------------------------------|--------------------|
|------------------------------------|--------------------|
|--4-----4-----4-------4----4--4-4-4-|---4--4-4-4-4-4-4-4-|
|------------------------------------|--------------------|
|
|                           ~~~~~~~~~~~~~~~~
|  S  S  S  S  E      +E   +H           +W
|-------17-19-21b24==(21)-(21)-------|-(21)---------------|
|-19-21------------------------------|--------------------|
|------------------------------------|--------------------|
|------------------------------------|--------------------|
|------------------------------------|--------------------|
|------------------------------------|--------------------|


 ---------------------| ~    PM--------------------------------|
   e    e e e  e    e e E   +E  E  E    E   E       E     E     E
|-------------------------|------------------------------------------|
|-------------------------|------------------------------------------|
|-------------------------|------------------------------------------|
|--7----6-4----6----------|------------------------------------------|
|-----------7-------7-6-4-|-(4)-4--4----4---4-------4-----4-----4----|
|-------------------------|------------------------------------------|
|
|                                           |----3-----|
|  H           H             Q     Q       +E   +E     E  S  S  S  S
|-21b23-------21b23-------|------------------------------------------|
|-------------------------|-------16b17r==(16)-(16)---14-17-16-14----|
|-------------------------|------------------------------------------|
|-------------------------|---------------------------------------16-|
|-------------------------|------------------------------------------|
|-------------------------|------------------------------------------|


   PM---------------------------|     ~~~
   E    E          E  E  E  E E  E    W
|----------------------------------|-------------------------------------------|
|----------------------------------|-------------------------------------------|
|----------------------------------|-------------------------------------------|
|----------------------------------|-------------------------------------------|
|--4----4----------4--4--4--4-4--4-|-------------------------------------------|
|----------------------------------|--3----------------------------------------|
|
|  |---3---|                          |--3--|  |--3--|
|  E  E    E      +Q     Q.      E    E  E  E  E  E  E  S  S  S  S  S  S  S  S
|-------------------------------12-|-17p16p14s13-------------------------------|
|-16-14----------------------------|-------------16-14-13----------------------|
|---------16b18==(16)r==16---------|----------------------16-14-13-------------|
|----------------------------------|-------------------------------16-14-13-16-|
|----------------------------------|-------------------------------------------|
|----------------------------------|-------------------------------------------|


  +H..                                         E
|-----------------------------------------------------||
|-----------------------------------------------------||
|-----------------------------------------------------||
|-----------------------------------------------------||
|-----------------------------------------------------||
|-(3)------------------------------------------0------||
|
|  S    S  S  S  S  S  S  S  S  S  S  S  S  S  S  S
|-----------------------------------------------------||
|---------------------------------------13h14p13h14---||
|---------------------------13h14p13h14---------------||
|---------------13h14p13h14---------------------------||
|-15h==16p15h16---------------------------------------||
|-----------------------------------------------------||


  Em
  Gtr III
   W                               +W
   |                                |
   /                                /

           PM--------------------------------------------------------|
  +E       E    E  E   E  E E E     E  E  E    E     E    E     E    E
|-------------------------------|-----------------------------------------|
|-------------------------------|-----------------------------------------|
|-------------------------------|-----------------------------------------|
|-------------------------------|-----------------------------------------|
|-------------------------2---3-|---2--5--3----2--------------------------|
|-(0)------3----2--5---3----5---|--------------------5----3-----2----0----|
|
|               ~~~~~~~~~~~~~~~~~~~~~~~
|                                         |---3---|  |---3---|  |---3---|
|  E      +E   +Q     +H           +Q     E  E    E  E  E    E  E  E    E
|-------------------------------|--------12-14---15-12-14---15S17-14---15-|
|-15b17==(15)-(15)---(15)-------|-(15)------------------------------------|
|-------------------------------|-----------------------------------------|
|-------------------------------|-----------------------------------------|
|-------------------------------|-----------------------------------------|
|-------------------------------|-----------------------------------------|


                                                                  D.S. al Coda
  C/E                                                 C/E
   W                                                    W
   |                                                    |
   /                                                    /

        PM--------------------------------------------------------------|
   E    E     E    E     E    E     E             E     E  E E E   E  E E  E
|---------------------------------------------------|---------------------------||
|---------------------------------------------------|---------------------------||
|---------------------------------------------------|---------------------------||
|---------------------------------------------------|---------------------(2)---||
|-----------------------------2-------------------3-|---2--5-3-2----------(2)---||
|--0----3-----2----5-----3----------5---------------|--------------5--3-2--0----||
|
|                                                       ~~~~
|  |---3---|  |---3---|  |---3---|
|  E  E    E  E  E    E  E  E    E  S     +E.          +H         +H
|-17S19---15-17-19S==20-17-19---20-20b23-(20)b24====|=(20)-------(20)-----------||
|---------------------------------------------------|---------------------------||
|---------------------------------------------------|---------------------------||
|---------------------------------------------------|---------------------------||
|---------------------------------------------------|---------------------------||
|---------------------------------------------------|---------------------------||


   Out-Chorus
    &
    E/G#               C/A       Am/G
     W                  H         H
     |                  |         |
     /                  /         /

     PM----------------------------------|
     E E E E E E E E    E E  E E  E E  E E
||-------------------|---------------------|
||o------------------|---------------------|
||-------------------|---------------------|
||-------------------|---------------------|
||o------------------|---------------------|
||---4-4-4-4-4-4-4-4-|--5-5--5-5--3-3--3-3-|
|
|    ~~
|    W                  Q    Q    Q    Q
||--19---------------|-20---19---17--------|
||o------------------|----------------20---|
||-------------------|---------------------|
||-------------------|---------------------|
||o------------------|---------------------|
||-------------------|---------------------|


  B7       B/Eb       G/E       G/D
   H        H          H         H
   |        |          |         |
   /        /          /         /

   PM--------------------------------------
   E E E E  E E E E    E E  E E  E E  E E
|-------------------|---------------------|
|-------------------|---------------------|
|-------------------|---------------------|
|-------------------|---------------------|
|--2-2-2-2--6-6-6-6-|--7-7--7-7--5-5--5-5-|
|-------------------|---------------------|
|
|  ~~~~~~~~~~~
|  H        H          Q    Q    Q    Q
|----------17-------|-19---17---15--------|
|-19----------------|----------------19---|
|-------------------|---------------------|
|-------------------|---------------------|
|-------------------|---------------------|
|-------------------|---------------------|


  Gm/C#               B/Eb            Gm/C#
   W                   H               H
   |                   |               |
   /                   /               /

 ---------------------------------------------|
   E E E E  E E E E    E E  E    E     E E  E E
|-------------------|-----------------------------|
|-------------------|-----------------------------|
|-------------------|-----------------------------|
|-------------------|-----------------------------|
|--4-4-4-4--4-4-4-4-|--6-6--6----6-----4-4--4-4---|
|-------------------|-----------------------------|
|
|  ~~~~~~~~~~~
|                           |---3---|
|  H        H          Q    E  E    E  Q    Q
|----------15-------|-17---15h17p==15S14----------|
|-17----------------|----------------------17-----|
|-------------------|-----------------------------|
|-------------------|-----------------------------|
|-------------------|-----------------------------|
|-------------------|-----------------------------|


           B7         Gm/C#    B/Eb
  +H        H          H        H
   |        |          |        |
   /        /          /        /

   PM------------------------------------
   E E E E  E E E E    E E E E  E E E E
|-------------------|-------------------|
|-------------------|-------------------|
|-------------------|-------------------|
|-------------------|-------------------|
|--4-4-4-4--2-2-2-2-|--4-4-4-4--6-6-6-6-|
|-------------------|-------------------|
|
|  ~~~~~~~~~~~~~~~~~~~~~~~~~~~~~~~
|  H        H          H        H
|-------------------|-------------------|
|-17-------16-------|-17-------19-------|
|-------------------|-------------------|
|-------------------|-------------------|
|-------------------|-------------------|
|-------------------|-------------------|


  E/G#                  C/A       Am/G
   W                     H         H
   |                     |         |
   /                     /         /

 -----------------------------------------|
   E   E E E  E E E E    E E  E E  E E  E E
|---------------------|----------------------|
|---------------------|----------------------|
|---------------------|----------------------|
|---------------------|----------------------|
|---------------------|----------------------|
|--4---4-4-4--4-4-4-4-|--5-5--5-5--3-3--3-3--|
|
|  \5/
|             ~~
|  Q     Q    H          Q    Q    Q    Q
|------------19-------|-20---19---17---------|
|-17------------------|----------------20----|
|---------------------|----------------------|
|---------------------|----------------------|
|---------------------|----------------------|
|---------------------|----------------------|


  B7       B/Eb       G/E       G/D
   H        H          H         H
   |        |          |         |
   /        /          /         /

   PM--------------------------------------
   E E E E  E E E E    E E  E E  E E  E E
|-------------------|---------------------|
|-------------------|---------------------|
|-------------------|---------------------|
|-------------------|---------------------|
|--2-2-2-2--6-6-6-6-|--7-7--7-7--5-5--5-5-|
|-------------------|---------------------|
|
|  ~~~~~~~~~~~
|  H        H          Q    Q    Q    Q
|----------17-------|-19---17---15--------|
|-19----------------|----------------19---|
|-------------------|---------------------|
|-------------------|---------------------|
|-------------------|---------------------|
|-------------------|---------------------|


  Gm/C#               B/Eb            Gm/C#
   W                   H               H
   |                   |               |
   /                   /               /

 ---------------------------------------------|
   E E E E  E E E E    E E  E    E     E E  E E
|-------------------|-----------------------------|
|-------------------|-----------------------------|
|-------------------|-----------------------------|
|-------------------|-----------------------------|
|--4-4-4-4--4-4-4-4-|--6-6--6----6-----4-4--4-4---|
|-------------------|-----------------------------|
|
|  ~~~~~~~~~~~
|                           |---3---|
|  H        H          Q    E  E    E  Q    Q
|----------15-------|-17---15h17p==15S14----------|
|-17----------------|----------------------17-----|
|-------------------|-----------------------------|
|-------------------|-----------------------------|
|-------------------|-----------------------------|
|-------------------|-----------------------------|


           B7         Gm/C#    B/Eb
  +H        H          H         H
   |        |          |         |
   /        /          /         /

   PM-----------------------------------------
   E E E E  E E E E    E E E E   E   E E E
|-------------------|-----------------------||
|-------------------|----------------------o||
|-------------------|-----------------------||
|-------------------|-----------------------||
|--4-4-4-4--2-2-2-2-|--4-4-4-4---6---6-6-6-o||
|-------------------|-----------------------||
|
|                                \2/
|  ~~~~~~~~~~~~~~~~~~~~~~
|  H        H          H        +H
|-------------------|-----------------------||
|-17-------16-------|-17-------(17)--------o||
|-------------------|-----------------------||
|-------------------|-----------------------||
|-------------------|----------------------o||
|-------------------|-----------------------||


  Gm/C#    B7         Gm/C#    B/Eb
   H        H          H        H
   |        |          |        |
   /        /          /        /

 -------------------------------------|
   E E E E  E E E E    E E E E  E E E E
|-------------------|-------------------|
|-------------------|-------------------|
|-------------------|-------------------|
|-------------------|-------------------|
|--4-4-4-4--2-2-2-2-|--4-4-4-4--6-6-6-6-|
|-------------------|-------------------|
|
|  ~~~~~~~~~~~~~~~~~~~~~~~~~~~~~~~
|  H        H          H        H
|-------------------|-------------------|
|-17-------16-------|-17-------19-------|
|-------------------|-------------------|
|-------------------|-------------------|
|-------------------|-------------------|
|-------------------|-------------------|


  Gm/C#    B7         Gm/C#    B/Eb
   H        H          H        H
   |        |          |        |
   /        /          /        /

   PM---------------------------------|
   E E E E  E E E E    E E E E  E E E E
|-------------------|-------------------||
|-------------------|-------------------||
|-------------------|-------------------||
|-------------------|-------------------||
|--4-4-4-4--2-2-2-2-|--4-4-4-4--6-6-6-6-||
|-------------------|-------------------||
|
|  ~~~~~~~~~~~~~~~~~~~~~~
|  H        H          H        H
|-------------------|----------17-------||
|-20-------19-------|-20----------------||
|-------------------|-------------------||
|-------------------|-------------------||
|-------------------|-------------------||
|-------------------|-------------------||


  E5
   W
   |
   /

   W
|--------------------------------------------------------:
|--------------------------------------------------------:
|--------------------------------------------------------:
|--2-----------------------------------------------------:
|--2-----------------------------------------------------:
|--0-----------------------------------------------------:
|
|                    |-3-|              |------6-------|
|  E     E     +E   +E   S  S  S  S  S  S  S  S  S  S  S
|-17b18-17b18r(17)-(17)-15-17h19p17p15----15h17-19h20p19p:
|--------------------------------------19----------------:
|--------------------------------------------------------:
|--------------------------------------------------------:
|--------------------------------------------------------:
|--------------------------------------------------------:


  B5
   W
   |
   /

   W
|----------------------------------------------------------------------|
|----------------------------------------------------------------------|
|--4-------------------------------------------------------------------|
|--4-------------------------------------------------------------------|
|--2-------------------------------------------------------------------|
|----------------------------------------------------------------------|
|
|                                                      ~~~~
|  T  T  T  T  T  T  T  T  T  T  T  T  T  T      +S   +Q    E.    +S
|-17-19-17-------17----------------------------------------14b15r(14)p=|
|----------20-20----20-19-17-15-19p17p15-17b19==(17)-(17)--------------|
|----------------------------------------------------------------------|
|----------------------------------------------------------------------|
|----------------------------------------------------------------------|
|----------------------------------------------------------------------|


  G5                               A5
   W                               W
   |                               |
   /                               /

   W                               W
|--------------------------------:-------------------------------|
|--------------------------------:-------------------------------|
|--------------------------------:-2-----------------------------|
|--5-----------------------------:-2-----------------------------|
|--5-----------------------------:-0-----------------------------|
|--3-----------------------------:-------------------------------|
|
|                                  ~~~
|                      |-3-| |3|          |-------11:8--------|
|  S  S  S  S  S S S S E E E E Q   H      S S S S S S S S S S S
|-12-10--------------------------:------------------------5------|
|-------12-11-10S8---8-7---------:--------------5---5h7h8---7-8--|
|------------------9-----9-7-5-4-:-4b5----4s5h7---7--------------|
|--------------------------------:-------------------------------|
|--------------------------------:-------------------------------|
|--------------------------------:-------------------------------|


  +W
   |
   /

  +W
|-----------------------------------------------------------------------------|
|-----------------------------------------------------------------------------|
|-(2)-------------------------------------------------------------------------|
|-(2)-------------------------------------------------------------------------|
|-(0)-------------------------------------------------------------------------|
|-----------------------------------------------------------------------------|
|
|  |-----------14:8-------------|   |-----------------15:8------------------|
|  S S S S S S S S  S S S  S S  S   S  S  S S  S  S S  S  S  S  S  S  S  S  S
|--7h8p7p5-------8s10p8-7----------10s12p10p8---------12s14p12p10----------10-|
|----------7-8p5----------10-8-(7)------------12p10p8-------------13p12h13----|
|-----------------------------------------------------------------------------|
|-----------------------------------------------------------------------------|
|-----------------------------------------------------------------------------|
|-----------------------------------------------------------------------------|


  C5
   W
   |
   /

   W
|---------------------------------------------:
|---------------------------------------------:
|--5------------------------------------------:
|--5------------------------------------------:
|--3------------------------------------------:
|---------------------------------------------:
|
|                                         ~~~~
|  E.    +S   S  S  S  S  S  S  S  S     +Q
|-14b15r(14)-12-------------------------------:
|---------------15-13-12-14-12-11-12b14-(12)--:
|---------------------------------------------:
|---------------------------------------------:
|---------------------------------------------:
|---------------------------------------------:


   W
   |
   o

   W
|---------------------------------------------------------------------------|
|---------------------------------------------------------------------------|
|--7------------------------------------------------------------------------|
|--7------------------------------------------------------------------------|
|--6------------------------------------------------------------------------|
|---------------------------------------------------------------------------|
|
|  |-------------11:8--------------|  |-------------11:8---------------|
|  S  S  S  S  S  S  S  S  S   S   S  S  S  S   S   S   S  S  S  S  S  S
|-------11h14-17p14p11----17p(11)h14p11----17p(11)h14p=11----17p14p11-------|
|-12s13----------------13---------------13----------------13----------13----|
|---------------------------------------------------------------------------|
|---------------------------------------------------------------------------|
|---------------------------------------------------------------------------|
|---------------------------------------------------------------------------|


   ~~~
  +H                                                 Q           Q
|------------------------------------------------------------------------------------|
|------------------------------------------------------------------------------------|
|------------------------------------------------------------------------------------|
|----------------------------------------------------x\------------------------------|
|-(6)------------------------------------------------x\------------------------------|
|----------------------------------------------------------------7-------------------|
|
|             |-3--|   |----------10:8------------|              |--------7--------|
|  T  S.     +S   +E   T  T  T  T  T  T  T  T  T  T  S  S  S  S  S  S  S  S  S  S  S
|-14s20b22==(20)r(20)-19-20-17-20-15-20----20----20----------15-19h20p19p17----------|
|---------------------------------------19----17----------------------------20-19-17-|
|---------------------------------------------------16h17h19-------------------------|
|------------------------------------------------------------------------------------|
|------------------------------------------------------------------------------------|
|------------------------------------------------------------------------------------|


  E E E E E E E E   +H     H
|-----------------|-------------*|
|---------------5-|-(5)---------*|
|---------------4-|-(4)---------*|
|---------------2-|-(2)---------*|
|-3-2-----2-----2-|-(2)---------*|
|-----5-3---3-2-0-|-(0)---------*|



Duration Legend
---------------
W - whole; H - half; Q - quarter; E - 8th; S - 16th; T - 32nd; X - 64th; a - acciaccatura
+ - note tied to previous; . - note dotted; .. - note double dotted
Uncapitalized letters represent notes that are staccato (1/2 duration)
Irregular groupings are notated above the duration line
Duration letters will always appear directly above the note/fret number it represents the
duration for.  Duration letters with no fret number below them represent rests.  Multi-
bar rests are notated in the form Wxn, where n is the number of bars to rest for.  Low
melody durations appear below the staff

Tablature Legend
----------------
 h   - hammer-on
 p   - pull-off
 b   - bend
 pb  - pre-bend
 r   - bend release (if no number after the r, then release immediately)
 /\  - slide into or out of (from/to "nowhere")
 s   - legato slide
 S   - shift slide
 - natural harmonic
[n]  - artificial harmonic
n(n) - tapped harmonic
 ~   - vibrato
 tr  - trill
 T   - tap
 TP  - trem. picking
 PM  - palm muting
\n/  - tremolo bar dip; n = amount to dip
 \n  - tremolo bar down
 n/  - tremolo bar up
/n\  - tremolo bar inverted dip
 =   - hold bend; also acts as connecting device for hammers/pulls
 <> - volume swell (louder/softer)
 x   - on rhythm slash represents muted slash
 o   - on rhythm slash represents single note slash

Misc Legend
-----------
 |  - bar
||  - double bar
||o - repeat start
o|| - repeat end
*|  - double bar (ending)
 :  - bar (freetime)
 $  - Segno
 &  - Coda
Tempo markers -  = BPM(8/16=s8/s16), where s8 = swing 8ths, s16 = swing 16ths

Related for Fury tab