Song name
# A B C D E F G H I J K L M N O P Q R S T U V W X Y Z

Malo - Suavecito tab

Malo - Suavecito

This is as close as i could get it by ear....corrections welcome.

(let notes ring for intro)

------------7p0---------------0--------|
--------5-------5---------3-----3------|
------6---6-------6-----4---4-----4----| x6
--4/6---------------6\4----------------|
---------------------------------------|
---------------------------------------|

------0------0-----0------0-----0-----0----------------| (intro end)
--3/5---5555---5/7---7777-- 7/9--9999----10-10-10-10---|
-----------------------------------------9--9--9--9----|
-------------------------------------------------------|
-------------------------------------------------------|
-------------------------------------------------------|

--------------------------10-14\-------------------------10--14-14\--|
--9--5----7-7h10p7---5/7---------9--5----7-7h10p7---5/7--------------|
--9--6--7----------7-------------9--6--7----------7------------------|
--11-6---------------------------11-6--------------------------------|
---------------------------------------------------------------------|
---------------------------------------------------------------------|

-------------------------10-10\-----------------------5/7\5---|
--9--5----7-7h10p7---5/7-------9---5----7--7h10p7-----5/7\5---|
--9--6--7----------7-----------9---6--7-----------7-----------|
--11-6-------------------------11--6--------------------------|
--------------------------------------------------------------|
--------------------------------------------------------------|

--------------------------10--14-14\----------------------------10--14\---|
--9--5----7--7h10p7---5/7--------------9--5----7--7h10p7---5/7------------|
--9--6--7-----------7------------------9--6--7-----------7----------------|
--11-6---------------------------------11-6-------------------------------|
--------------------------------------------------------------------------|
--------------------------------------------------------------------------|

-----------------------------10-10\--------------------------10--14-14\--|
--9---5-----7--7h10p7---5/7---------9--5----7--7h10p7---5/7--------------|
--9---6---7-----------7-------------9--6--7-----------7------------------|
--11--6-----------------------------11-6---------------------------------|
-------------------------------------------------------------------------|
-------------------------------------------------------------------------|

---------------------------10-10-10\----------------------5/7\5------|
--9---5----7--7h10p7---5/7------------9--5----7--7h10p7---5/7\5------|
--9---6--7-----------7----------------9--6--7-----------7------------|
--11--6-------------------------------11-6---------------------------|
---------------------------------------------------------------------|
---------------------------------------------------------------------|

-------------------------10--14-14\---------------------------10-10\---|
--9--5----7-7h10p7---5/7-------------9--5----7-7h10p7---5/7------------|
--9--6--7----------7-----------------9--6--7----------7----------------|
--11-6-------------------------------11-6------------------------------|
-----------------------------------------------------------------------|
-----------------------------------------------------------------------|

--------------------------10--14\----------------------5/7\5---------|
--9--5---7--7h10p7---5/7-----------9--5----7--7h10p7---5/7\5---------|
--9--6-7-----------7---------------9--6--7-----------7---------------|
--11-6-----------------------------11-6------------------------------|
---------------------------------------------------------------------|
---------------------------------------------------------------------|

---------------------------10-10-10---------------------------10--14\---|
--9--5----7--7h10p7---5/7-----------9--5----7--7h10p7----5/7------------|
--9--6--7-----------7---------------9--6--7-----------7-----------------|
--11-6------------------------------11-6--------------------------------|
------------------------------------------------------------------------|
------------------------------------------------------------------------|

-----0-0-0-0-0--5/7\5-----0-0-0-0-0-------10--14\----0-0-0-0-0------10-10\-|
--9--5-5-3-3-3--5/7\5--9--5-5-3-3-3--5/7----------9--5-5-3-3-3--5/7--------|
--9--6-6-4-4-4---------9--6-6-4-4-4---------------9--6-6-4-4-4-------------|
--11-6-6-4-4-4---------11-6-6-4-4-4---------------11-6-6-4-4-4-------------|
---------------------------------------------------------------------------|
---------------------------------------------------------------------------|

-----0-0-0-0-0--5/7\5-|
--9--5-5-3-3-3--5/7\5-|
--9--6-6-4-4-4--------|
--11-6-6-4-4-4--------|
----------------------|
----------------------|

This tab stops at 2:00, i might tab more later...but this should help you figure
out more of it, lots of what i've tabbed is repeated....
Tap to rate this tab
 
# A B C D E F G H I J K L M N O P Q R S T U V W X Y Z