Song name
# A B C D E F G H I J K L M N O P Q R S T U V W X Y Z

Malodorous - Profligate Fortitude tab

|------------------------|     |---------------------------------|
|------------------------|     |---------------------------------|
|------------------------|4x   |---------------------------------|13x
|-------------------1-3--|     |---------------------------------|
|-0--1--3-0--0-1-0--1-3--|     |---------------------000-555-000-|
|-0--1--3-0--0-1-0--1-3--|     |-888-000-111-333-000-------------|



|------------------------|     |-----------------------|
|------------------------|     |-----------------------|
|------------------------|4x   |-----------------------| REPEAT UNTIL SONG ENDS
|-------------------1-3--|     |-------------------1-3-|
|-0--1--3-0--0-1-0--1-3--|     |-0--1--2-0--0-1-0--1-3-|
|-0--1--3-0--0-1-0--1-3--|     |-0--1--2-0--0-1-0--1-3-|



WELL THATS BASICALLY THE SONG SINCE ITS VERY REPETITIVE. HOPE THIS TAB HELPS PLAESE RATE!
Tap to rate this tab
 
# A B C D E F G H I J K L M N O P Q R S T U V W X Y Z