Song name
# A B C D E F G H I J K L M N O P Q R S T U V W X Y Z

Malon - 30000 Plegarias tab

d|---------------------------------------------------------------------|
A|--0----0--------1--0----0----3---1--0----0---------------------------|
F|----0----0----2------0----0----2------0----0--2---2--0---0-----------|
C|------------4-----------------------------------4------2---2----4----|
G|--------------------------------------------------------------5---5--|
D|---------------------------------------------------------------------|

d|---------------------------------------------------------------------|
A|--0----0--------1--0----0----3---1--0----0---------------------------|
F|----0----0----2------0----0----2------0----0--2---2--0---0-----------|
C|------------4-----------------------------------4------2---2----4----|
G|--------------------------------------------------------------5---5--|
D|---------------------------------------------------------------------|

d|----------------------0--------------------------------------------------0--|
A|--------0-----------0-----------0-----------0--------------0-----------0----|
F|------0---0-------0-----------0---0-------0---0----------0---0-------0------|
C|----2-----------4-----------2-----------4-------4------2-----------4--------|
G|--3-----------5-----------2-----------5-----------5--3-----------5----------|
D|----------------------------------------------------------------------------|

d|---------------------------------------------------------------------|
A|--0----0--------1--0----0----3---1--0----0---------------------------|
F|----0----0----2------0----0----2------0----0--2---2--0---0-----------|
C|------------4-----------------------------------4------2---2----4----|
G|--------------------------------------------------------------5---5--|
D|---------------------------------------------------------------------|

d|---------------------------------------------------------------------|
A|--0----0--------1--0----0----3---1--0----0---------------------------|
F|----0----0----2------0----0----2------0----0--2---2--0---0-----------|
C|------------4-----------------------------------4------2---2----4----|
G|--------------------------------------------------------------5---5--|
D|---------------------------------------------------------------------|

d|----------------------0--------------------------------------------------0--|
A|--------0-----------0-----------0-----------0--------------0-----------0----|
F|------0---0-------0-----------0---0-------0---0----------0---0-------0------|
C|----2-----------4-----------2-----------4-------4------2-----------4--------|
G|--3-----------5-----------2-----------5-----------5--3-----------5----------|
D|----------------------------------------------------------------------------|

d|--------------------3-2-----3-----0-----3---2-----3-----2---+---------------------3-2----|
A|--------0---------3-----0-----1-----1---------3-----3-------+---------0---------3-----0--|
F|----------0-----2---------------0-----0---------2-----2-----+-------0---0-----2----------|
C|------2-------0---------------------------------------------+-----2---------0------------|
G|----2-------------------------------------------------------+---2------------------------|
D|--0---------------------------------------------------------+-0--------------------------|

d|--3------0-----3---5-------3------2-------------0------+--7------5------8--7--------------
A|----1------1---------3-------3----------------0---0----+----0------0-----------0------0---
F|------0------0---------2-------2------------0-------0--+------0------0-------0---0--0---0-
C|------------------------------------------2------------+----------------------------------
G|----------------------------------------2--------------+----------------------------------
D|--------------------------------------0----------------+----------------------------------

d|--7------5------8--7----------------2------0-------2---3-2---0---0------------------------
A|----0------0-----------0------0-------3------3-----------------3-------0-1--0---0------0--
F|------0------0-------0---0--0---0-------2------2---------------------0--------0---0--0---0
C|------------------------------------------------------------------------------------------
G|------------------------------------------------------------------------------------------
D|------------------------------------------------------------------------------------------

d|--7------5------8--7----------------7------5------8--7---------------|
A|----0------0-----------0------0-------0------0-----------0------0----|
F|------0------0-------0---0--0---0-------0------0-------0---0--0---0--|
C|---------------------------------------------------------------------|
G|---------------------------------------------------------------------|
D|---------------------------------------------------------------------|

d|----------0----------------------------0--+--3-------0------3---------3-2--|
A|--------1------------------0---------0----+----1-------1------------3------|
F|------2---------0--------0---------0------+------0-------0--------2--------|
C|----2---------2--------4---------2--------+---------------------0----------|
G|--0---------3--------5---------2----------+--------------------------------|
D|-----------------------------0------------+--------------------------------|

d|--------------------3-2-----3-----0-----3---5-----3------2------------0------|
A|----------0-------3-----0-----1-----1---------3-----3---------------0---0----|
F|--------0-------2---------------0-----0---------2-----2-----------0-------0--|
C|------2-------0-------------------------------------------------2------------|
G|----2---------------------------------------------------------2--------------|
D|--0---------------------------------------------------------0----------------|

d|---------------------------------------------------------------------|
A|--0----0--------1--0----0----3---1--0----0---------------------------|
F|----0----0----2------0----0----2------0----0--2---2--0---0-----------|
C|------------4-----------------------------------4------2---2----4----|
G|--------------------------------------------------------------5---5--|
D|---------------------------------------------------------------------|

d|------------------------------------------------------------------------0--|
A|--0----0--------1--0----0----3---1--0----0------------------------------0--|
F|----0----0----2------0----0----2------0----0--2---2--0---0--------------0--|
C|------------4-----------------------------------4------2---2---4---4----2--|
G|-----------------------------------------------------------------5---5--2--|
D|------------------------------------------------------------------------0--|

 
Tap to rate this tab
 
# A B C D E F G H I J K L M N O P Q R S T U V W X Y Z