Song name
# A B C D E F G H I J K L M N O P Q R S T U V W X Y Z

Malukah - The Dragonborn Comes tab

Greetings Bards!

Welcome to Bard's College. I hope your journey to solitude was pleasant and not 
too rough. I assume you're here to learn songs to play in inns and taverns? Well, 
you've come to the right place!
So, I've searched everywhere for a accurate and tidy version of The Dragonborn 
Comes for a while now but I haven't found any complete TABs or chords. I have 
worked this out and it's not too hard to play :)
If you find any mistakes or errors please post a comment, keep in mind that this 
is a bit simplified!


------------------------------------------------------------------------------------------------


TAB
The TAB should line up and fit with the lyrics which are under the TAB (scroll down) :)



The Dragonborn Comes
Malukah
Standard Tuning 
Capo 4th fret
(G, C and F are played as bar chords)



INTRO
     Am    
e|------------------------------------------------|
B|-------1-----------1-----------1-----------1----|
G|-------2-----------2-----------2-----------2----|
D|-----2-------2---2-------2---2-------2---2------|
A|---0-----------0-----------0-----------0--------|
E|------------------------------------------------|



THE DRAGON BORN COMES 
    Am            G           Am        
e|-------------------------------------------------|
B|-------1------------3-----------1-----------1----|
G|-------2------------4-----------2-----------2----|  x8
D|-----2------------5-----------2-------2---2------|
A|---0------------5-----------0-----------0--------|
E|-------------------------------------------------|



MIDDLE SECTION 
     Am           C           G           D     
e|-------------------------------------------------|
B|-------1------------5-----------3-----------3----|
G|-------2------------5-----------4-----------2----|  
D|-----2------------5-----------5-----------0------|
A|---0------------3-----------5-----------0--------|
E|-------------------------------------------------|

     Am           C           F           D     
e|-------------------------------------------------|
B|-------1------------5-----------1-----------3----|
G|-------2------------5-----------2-----------2----|  
D|-----2------------5-----------3-----------0------|
A|---0------------3-----------3-----------0--------|
E|-------------------------------------------------|

     Am           C           F           G     
e|-------------------------------------------------|
B|-------1------------5-----------1-----------3----|
G|-------2------------5-----------2-----------4----|  
D|-----2------------5-----------3-----------5------|
A|---0------------3-----------3-----------5--------|
E|-------------------------------------------------|



SONS OF SKYRIM
    Am     F     G     D     F     D     E     Am          
e|-------------------------------------------------|
B|-------------------------------------------------|
G|---2-----2-----5-----2-----2-----2-----1-----2---|  
D|---2-----3-----5-----0-----3-----0-----2-----2---|
A|---0-----3-----3-----0-----3-----0-----2-----0---|
E|-------------------------------------------------|

    Am     F     G     D     F     D     E     Am       Am        Am         Am (Strum)
e|---------------------------------------------------------------------------0---|
B|-------------------------------------------------1----------1--------1-----1---|
G|---2-----2-----5-----2-----2-----2-----1---------2----------2--------2-----2---|  
D|---2-----3-----5-----0-----3-----0-----2-------2------2---2------2------2--2---|
A|---0-----3-----3-----0-----3-----0-----2-----0----------0----------0-------0---|
E|-------------------------------------------------------------------------------|

I know the very end is not accurate but it sounds really nice this way :)


----------------------------------------------------------------------------------------


CHORDS
The chords above the TAB should line up with the chords written here with the lyrics :)



The Dragonborn Comes
Malukah
Standard Tuning 
Capo 4th fret
(G, C and F are played as bar chords)


    Am                       G        Am        Am
Our Hero, our Hero, claims a warrior's heart

  Am                        G          Am       Am
I tell you, I tell you, the Dragonborn comes



       Am                          G          Am       Am      
With a Voice wielding power of the ancient Nord art

  Am                  G         Am       Am
Believe, believe, the Dragonborn comes



        Am                 G           Am       Am
It's an end to the evil of all Skyrim's foes

  Am                G         Am       Am
Beware, beware, the Dragonborn comes



        Am                           G       Am       Am
For the darkness has passed and the legend yet grows

       Am                     G          Am       Am
You'll know, you'll know, the Dragonborn's come



Am    C     G     D
Am    C     F     D
Am    C     F     G



     Am         F
Dovahkiin, Dovahkiin

        G          D
Naal ok zin los vahriin

    F      D         E         Am
Wah dein vokul mahfaeraak ahst vaal

         Am         F
Ahrk fin norok paal graan

         G          D
Fod nust hon zindro zaan

     F         D     E       Am
Dovahkiin, fah hin kogaan mu draal



I hope you enjoyed these TABs and chords! :D
Tap to rate this tab
 
# A B C D E F G H I J K L M N O P Q R S T U V W X Y Z