Song name
# A B C D E F G H I J K L M N O P Q R S T U V W X Y Z

Mama Ladilla - Sucedio En Beckelar tab

Help us improve GuitareTab! Take a short survey!
Mam Ladilla
Sucedi en beckelar

tab por truko4
 



|------------7--------------7-|-----------7----------------|
|--10-----------9-10-9-7------|-10-----------9-10-9-7------|
|------9-----------------9----|-----9-----------------9--7-|
|---------7-------------------|--------7-------------------|
|-----------------------------|----------------------------|
|-----------------------------|----------------------------|


|-----------------------------|----------------------------|
|-----------------------------|----------------------------|
|-6--------7--6-7-6-----------|----------6--9--------------|
|----7--------------9-7-6-----|-------6--------------------|
|-------9-----------------9-7-|----7-----------------------|
|-----------------------------|-9--------------------------|


|-----------------------------|--------------------------7-|
|-----------------------------|------------9--10-----------|
|--7--9-7--6------------------|-------------------9--------|
|-------------9----7----------|-6-7-6----------------7-----|
|-----------------------------|-------9-7------------------|
|-----------------------------|----------------------------|


|--10-9-7-------------------7-|-10-9-7-------------------------|
|---------10-9-10-9-7---------|--------10-9-10-9-7-------------|
|---------------------9-------|--------------------9-----6-9-7-|
|-----------------------------|----------------------7-9-------|
|-----------------------------|--------------------------------|
|-----------------------------|--------------------------------|

|-----------------------------|
|-----------------------------|
|--6---------6-----9----------|
|-------6--7----9-------------|
|-----9-----------------------|
|-----------------------------|



http://www.mamaladilla.com/
Related for Sucedio En Beckelar tab