Song name
# A B C D E F G H I J K L M N O P Q R S T U V W X Y Z

Mamas And Papas - Dream A Little Dream Of Me tab

Verse
e|-----------------------------0---------------------------------------------|
B|-1-0-1-0---1-0---1-0-1-0---2---2-0-------3-1-3-1---3-1---1--------1-3-4-3--|
G|---------2---------------2---------2-------------2-----1------0-2----------|
D|---------------------------------------------------------------------------|
A|---------------------------------------------------------------------------|
E|---------------------------------------------------------------------------|

Chorus
e|-5-2-5-2-0---0-------5-2-5-2-0-----5-2-5-2-0---0-------5-0-----4-3--------|
B|-----------2---------------------------------2-------------2-1------------|
G|-----------------1---------------------------------1----------------------|
D|---------------4---------------------------------4------------------------|
A|--------------------------------------------------------------------------|
E|--------------------------------------------------------------------------|

play 2 versus
then 1 chorus
then 2 versus
then 2 horus
Tap to rate this tab
 
# A B C D E F G H I J K L M N O P Q R S T U V W X Y Z