Guitaretab - guitar tabs
Song name
# A B C D E F G H I J K L M N O P Q R S T U V W X Y Z

Mammal - The Majority tab

ALRIGHT THEN, TAB FOR A GOOD SONG BY MAMMAL, WASN'T ANY TABS FOR IT SO I THOUGHT I'D 
A GO. I DON'T THINK ITS SPOT ON BUT IT SOUNDS ALRIGHT TO ME.

TUNING - DROP C

INTRO (ALSO USED BEFORE THE VERSES)
|----------------------------|
|----------------------------|
|----------7/5\7--------10\--|
|----------x-x-x--------x-\--|
|----------5/3\5--------8-\--|
|--3h5-0---------0-0000------|
              pm-. ....
VERSE
|----------------------------|
|----------------------------|
|----------------------------|
|----------------------------|
|--8-10-8--------------------|
|---------0-0-0-0-0-3-3-3----|
*(WHEN PLAYING THE OPEN C STRING KILL THE NOTE)
[ Tab from: http://www.guitaretab.com/m/mammal/188241.html ]
CHORUS
|----------------------------|
|----------------------------|
|-x-x-x-7-7~-----------------|
|-x-x-x-7-7~--3--------------|
|-x-x-x-5-5~--3---------3----|
|------------3-3-333-5---5---|
              pm-... .   .

BREAKDOWN RIFF
|----------------------------|
|----------------------------|
|----------------------------|
|--------0-0-3-3-5-5---------|
|--------0-0-3-3-5-5---------|
|--5b6-3-0-0-3-3-5-5---------|

LAST VERSE
|----------------------------|
|----------------------------|
|----------------------------|
|-0--------0---------0-------|
|-0--------0---------0-------|
|-0--------0---------0-------|
*play open C chord a few times more for the last verse, killing the notes after they're played

THEN PLAY THE CHORUS AND VERSE AS MANY TIMES NEEDED

HOPE THAT HELPS ANYONE WHO WANTS TO PLAY THIS SONG
LEAVE COMMENTS AND FEEDBACK IF YA FEEL LIKE IT :)
Related for The Majority tab
Advertisement will be closed in 10 seconds