Song name
# A B C D E F G H I J K L M N O P Q R S T U V W X Y Z

Mamonas Assassinas - Debil Metal tab

DEBIL METAL - Mamonas Assassinas

Tabbed by Nytrogod, 2011

MAIN RIFF

E|-------------------------------------------------------------------|
B|-------------------------------------------------------------------|
G|----------4-3------------------------------------4-3---------------| (x2)
D|----5-4----------5-4-----------------------5-4---------5-4---------|
A|---------------------0x0x-4~*--------------------------------------|
E|--2-----2------2---------------0x0x0x-2--------2-----2-----0x0x-5~*|


    E                                   F#
E|-------------------------------------------------------------------|
B|-------------------------------------------------------------------|
G|----------4-3------------------------------------4-3---------------|
D|----5-4----------5-4-----------------------5-4---------5-4---------|
A|---------------------0x0x-4~*--------------------------------------|
E|--2-----2------2---------------0x0x0x-2--------2-----2-----0x0x-5~*|


    F#                                  G                             
E|-------------------------------------------------------------------| 
B|-------------------------------------------------------------------| 
G|----------4-3------------------------------------4-3---------------| 
D|----5-4----------5-4-----------------------5-4---------5-4---------| 
A|---------------------0x0x-4~*--------------------------------------| 
E|--2-----2------2---------------0x0x0x-2--------2-----2-----0x0x-5~*|
                                                                       
    F#                                  E                              
E|-------------------------------------------------------------------| 
B|-------------------------------------------------------------------| 
G|----------4-3------------------------------------4-3---------------| 
D|----5-4----------5-4-----------------------5-4---------5-4---------| 
A|---------------------0x0x4~*---------------------------------------|
E|--2-----2------2---------------0x0x0x-2--------2-----2-----0x0x-5~*| 
                                                                      

F#  G  F#  E

  E             F#
Walking in the dark
             E         F#
now there's just some cookies
  F#              G
which is not for you
  F#         G
I know it's not and
E                F#
I just can't explain
   E            F#
it melts in my mouth.
 E       F#            
Dying to me now is popcorn. 
Bm                 A
 Can't you understand?
		         E
Can't you understand, boy? 
                   D
So, shake your head
      A
So, shake your head, sucker!

    F#                                  G                             
E|-------------------------------------------------------------------| 
B|-------------------------------------------------------------------| 
G|----------4-3------------------------------------4-3---------------| 
D|----5-4----------5-4-----------------------5-4---------5-4---------| 
A|---------------------0x0x-4~*--------------------------------------| 
E|--2-----2------2---------------0x0x0x-2--------2-----2-----0x0x-5~*| 
                                                                       
    F#                                  E                              
E|-------------------------------------------------------------------| 
B|-------------------------------------------------------------------| 
G|----------4-3------------------------------------4-3---------------| 
D|----5-4----------5-4-----------------------5-4---------5-4---------| 
A|---------------------0x0x-4~*--------------------------------------| 
E|--2-----2------2---------------0x0x0x-2--------2-----2-----0x0x-5~*| 

    F#                                  G                             
E|-------------------------------------------------------------------| 
B|-------------------------------------------------------------------| 
G|----------4-3------------------------------------4-3---------------| 
D|----5-4----------5-4-----------------------5-4---------5-4---------| 
A|---------------------0x0x-4~*--------------------------------------| 
E|--2-----2------2---------------0x0x0x-2--------2-----2-----0x0x-5~*| 
                                                                       
    F#                                  E                              
E|----------------------------------------------------------| 
B|----------------------------------------------------------| 
G|----------4-3------------------------------------4-3------| 
D|----5-4----------5-4-----------------------5-4---------5--| 
A|---------------------0x0x-4~*-----------------------------| 
E|--2-----2------2---------------0x0x0x-2--------2-----2----| 

SOLO (working on that)

Chords during solo

F# G F# E

and after 1st solo break:

Bm A (small break) E   D E (small break) D A     A


E|------------------------------------|
B|------------------------------------|
G|----------------4-3---------4-3-----|
D|----------5-4----------5-4------4~--|
A|------------------------------------|
E|-0x0x0x-2-----2-----2------2--------|


    Ohh!
    F#                                  G                             
E|-------------------------------------------------------------------| 
B|-------------------------------------------------------------------| 
G|----------4-3------------------------------------4-3---------------| 
D|----5-4----------5-4-----------------------5-4---------5-4---------| 
A|---------------------0x0x-4~*--------------------------------------| 
E|--2-----2------2---------------0x0x0x-2--------2-----2-----0x0x-5~*| 
                                                                       
    F#                                  E                              
E|-------------------------------------------------------------------| 
B|-------------------------------------------------------------------| 
G|----------4-3------------------------------------4-3---------------| 
D|----5-4----------5-4-----------------------5-4---------5-4---------| 
A|---------------------0x0x-4~*--------------------------------------| 
E|--2-----2------2---------------0x0x0x-2--------2-----2-----0x0x-5~*| 

    F#                                  G                             
E|-------------------------------------------------------------------| 
B|-------------------------------------------------------------------| 
G|----------4-3------------------------------------4-3---------------| 
D|----5-4----------5-4-----------------------5-4---------5-4---------| 
A|---------------------0x0x-4~*--------------------------------------| 
E|--2-----2------2---------------0x0x0x-2--------2-----2-----0x0x-5~*| 
                                                                       
    F#                                  E                              
E|----------------------------------------------------------| 
B|----------------------------------------------------------| 
G|----------4-3------------------------------------4-3------| 
D|----5-4----------5-4-----------------------5-4---------5--| 
A|---------------------0x0x-4~*-----------------------------| 
E|--2-----2------2---------------0x0x0x-2--------2-----2----|


  E             F#
Walking in the dark
             E         F#
now there's just some cookies
  F#              G
which is not for you
  F#         G
I know it's not and
E                F#
I just can't explain
   E            F#
it melts in my mouth.
 E       F#            
Dying to me now is popcorn. 
Bm                 A
 Can't you understand?
		         E
Can't you understand, boy? 
                   D
So, shake your head
      A                 Bm     A       D   E
So, shake your head, suckeeeer, oh no!
    F#
So shake your head sucker!


  F#                                  G                             
E|-------------------------------------------------------------------| 
B|-------------------------------------------------------------------| 
G|----------4-3------------------------------------4-3---------------| 
D|----5-4----------5-4-----------------------5-4---------5-4---------| 
A|---------------------0x0x-4~*--------------------------------------| 
E|--2-----2------2---------------0x0x0x-2--------2-----2-----0x0x-5~*| 
                                                                       
    F#                                  E 
    No more ideas!                      No more ideas!                     
E|-----------------------------------------------------------------------------| 
B|-----------------------------------------------------------------------------| 
G|----------4-3------------------------------------4-3-------------------------| 
D|----5-4----------5-4-----------------------5-4---------5-4-------------------| 
A|---------------------0x0x-4~*------------------------------------------------| 
E|--2-----2------2---------------0x0x0x-2--------2-----2-----0x0x-5~*--0x0x0x-2|

     F#
Itīs over!


END                                                                      
Tap to rate this tab
 
# A B C D E F G H I J K L M N O P Q R S T U V W X Y Z